  0
SECTION
  2
HEADER
  9
$ACADVER
  1
AC1015
  9
$ACADMAINTVER
 70
     6
  9
$DWGCODEPAGE
  3
ANSI_932
  9
$INSBASE
 10
0.0
 20
0.0
 30
0.0
  9
$EXTMIN
 10
0.0211080024674857
 20
0.0172721585058753
 30
0.0
  9
$EXTMAX
 10
362.0211065544675
 20
283.0172721585058
 30
0.0
  9
$LIMMIN
 10
0.0
 20
0.0
  9
$LIMMAX
 10
297.0
 20
210.0
  9
$ORTHOMODE
 70
     0
  9
$REGENMODE
 70
     1
  9
$FILLMODE
 70
     1
  9
$QTEXTMODE
 70
     0
  9
$MIRRTEXT
 70
     1
  9
$LTSCALE
 40
0.25
  9
$ATTMODE
 70
     1
  9
$TEXTSIZE
 40
5.0
  9
$TRACEWID
 40
0.05
  9
$TEXTSTYLE
  7
Standard
  9
$CLAYER
  8
0
  9
$CELTYPE
  6
ByLayer
  9
$CECOLOR
 62
   256
  9
$CELTSCALE
 40
1.0
  9
$DISPSILH
 70
     0
  9
$DIMSCALE
 40
1.0
  9
$DIMASZ
 40
2.3
  9
$DIMEXO
 40
1.0
  9
$DIMDLI
 40
30.0
  9
$DIMRND
 40
0.0
  9
$DIMDLE
 40
0.0
  9
$DIMEXE
 40
1.0
  9
$DIMTP
 40
0.0
  9
$DIMTM
 40
0.0
  9
$DIMTXT
 40
3.3
  9
$DIMCEN
 40
0.09
  9
$DIMTSZ
 40
0.0
  9
$DIMTOL
 70
     0
  9
$DIMLIM
 70
     0
  9
$DIMTIH
 70
     0
  9
$DIMTOH
 70
     0
  9
$DIMSE1
 70
     0
  9
$DIMSE2
 70
     0
  9
$DIMTAD
 70
     3
  9
$DIMZIN
 70
     8
  9
$DIMBLK
  1

  9
$DIMASO
 70
     1
  9
$DIMSHO
 70
     1
  9
$DIMPOST
  1

  9
$DIMAPOST
  1

  9
$DIMALT
 70
     0
  9
$DIMALTD
 70
     2
  9
$DIMALTF
 40
25.4
  9
$DIMLFAC
 40
1.0
  9
$DIMTOFL
 70
     1
  9
$DIMTVP
 40
0.7
  9
$DIMTIX
 70
     0
  9
$DIMSOXD
 70
     0
  9
$DIMSAH
 70
     0
  9
$DIMBLK1
  1

  9
$DIMBLK2
  1

  9
$DIMSTYLE
  2
Standard
  9
$DIMCLRD
 70
     0
  9
$DIMCLRE
 70
     0
  9
$DIMCLRT
 70
     0
  9
$DIMTFAC
 40
0.5
  9
$DIMGAP
 40
0.09
  9
$DIMJUST
 70
     0
  9
$DIMSD1
 70
     0
  9
$DIMSD2
 70
     0
  9
$DIMTOLJ
 70
     1
  9
$DIMTZIN
 70
     8
  9
$DIMALTZ
 70
     0
  9
$DIMALTTZ
 70
     0
  9
$DIMUPT
 70
     1
  9
$DIMDEC
 70
     2
  9
$DIMTDEC
 70
     4
  9
$DIMALTU
 70
     2
  9
$DIMALTTD
 70
     2
  9
$DIMTXSTY
  7
Standard
  9
$DIMAUNIT
 70
     0
  9
$DIMADEC
 70
     0
  9
$DIMALTRND
 40
0.0
  9
$DIMAZIN
 70
     0
  9
$DIMDSEP
 70
    46
  9
$DIMATFIT
 70
     2
  9
$DIMFRAC
 70
     0
  9
$DIMLDRBLK
  1

  9
$DIMLUNIT
 70
     2
  9
$DIMLWD
 70
    -2
  9
$DIMLWE
 70
    -2
  9
$DIMTMOVE
 70
     2
  9
$LUNITS
 70
     2
  9
$LUPREC
 70
     4
  9
$SKETCHINC
 40
0.1
  9
$FILLETRAD
 40
0.5
  9
$AUNITS
 70
     0
  9
$AUPREC
 70
     0
  9
$MENU
  1
.
  9
$ELEVATION
 40
0.0
  9
$PELEVATION
 40
0.0
  9
$THICKNESS
 40
0.0
  9
$LIMCHECK
 70
     0
  9
$CHAMFERA
 40
0.0
  9
$CHAMFERB
 40
0.0
  9
$CHAMFERC
 40
0.0
  9
$CHAMFERD
 40
0.0
  9
$SKPOLY
 70
     0
  9
$TDCREATE
 40
2457631.775520833
  9
$TDUCREATE
 40
2457631.400520833
  9
$TDUPDATE
 40
2457631.400526134
  9
$TDUUPDATE
 40
2457631.025526134
  9
$TDINDWG
 40
0.0000000116
  9
$TDUSRTIMER
 40
0.0000000116
  9
$USRTIMER
 70
     1
  9
$ANGBASE
 50
0.0
  9
$ANGDIR
 70
     0
  9
$PDMODE
 70
     0
  9
$PDSIZE
 40
0.0
  9
$PLINEWID
 40
0.0
  9
$SPLFRAME
 70
     0
  9
$SPLINETYPE
 70
     6
  9
$SPLINESEGS
 70
     8
  9
$HANDSEED
  5
418
  9
$SURFTAB1
 70
     6
  9
$SURFTAB2
 70
     6
  9
$SURFTYPE
 70
     6
  9
$SURFU
 70
     6
  9
$SURFV
 70
     6
  9
$UCSBASE
  2

  9
$UCSNAME
  2

  9
$UCSORG
 10
0.0
 20
0.0
 30
0.0
  9
$UCSXDIR
 10
1.0
 20
0.0
 30
0.0
  9
$UCSYDIR
 10
0.0
 20
1.0
 30
0.0
  9
$UCSORTHOREF
  2

  9
$UCSORTHOVIEW
 70
     0
  9
$UCSORGTOP
 10
0.0
 20
0.0
 30
0.0
  9
$UCSORGBOTTOM
 10
0.0
 20
0.0
 30
0.0
  9
$UCSORGLEFT
 10
0.0
 20
0.0
 30
0.0
  9
$UCSORGRIGHT
 10
0.0
 20
0.0
 30
0.0
  9
$UCSORGFRONT
 10
0.0
 20
0.0
 30
0.0
  9
$UCSORGBACK
 10
0.0
 20
0.0
 30
0.0
  9
$PUCSBASE
  2

  9
$PUCSNAME
  2

  9
$PUCSORG
 10
0.0
 20
0.0
 30
0.0
  9
$PUCSXDIR
 10
1.0
 20
0.0
 30
0.0
  9
$PUCSYDIR
 10
0.0
 20
1.0
 30
0.0
  9
$PUCSORTHOREF
  2

  9
$PUCSORTHOVIEW
 70
     0
  9
$PUCSORGTOP
 10
0.0
 20
0.0
 30
0.0
  9
$PUCSORGBOTTOM
 10
0.0
 20
0.0
 30
0.0
  9
$PUCSORGLEFT
 10
0.0
 20
0.0
 30
0.0
  9
$PUCSORGRIGHT
 10
0.0
 20
0.0
 30
0.0
  9
$PUCSORGFRONT
 10
0.0
 20
0.0
 30
0.0
  9
$PUCSORGBACK
 10
0.0
 20
0.0
 30
0.0
  9
$USERI1
 70
     0
  9
$USERI2
 70
     0
  9
$USERI3
 70
     0
  9
$USERI4
 70
     0
  9
$USERI5
 70
     0
  9
$USERR1
 40
0.0
  9
$USERR2
 40
0.0
  9
$USERR3
 40
0.0
  9
$USERR4
 40
0.0
  9
$USERR5
 40
0.0
  9
$WORLDVIEW
 70
     1
  9
$SHADEDGE
 70
     3
  9
$SHADEDIF
 70
    70
  9
$TILEMODE
 70
     1
  9
$MAXACTVP
 70
    64
  9
$PINSBASE
 10
0.0
 20
0.0
 30
0.0
  9
$PLIMCHECK
 70
     0
  9
$PEXTMIN
 10
0.0
 20
0.0
 30
0.0
  9
$PEXTMAX
 10
297.0
 20
210.0
 30
0.0
  9
$PLIMMIN
 10
0.0
 20
0.0
  9
$PLIMMAX
 10
297.0
 20
210.0
  9
$UNITMODE
 70
     0
  9
$VISRETAIN
 70
     1
  9
$PLINEGEN
 70
     0
  9
$PSLTSCALE
 70
     1
  9
$TREEDEPTH
 70
  3020
  9
$CMLSTYLE
  2
Standard
  9
$CMLJUST
 70
     0
  9
$CMLSCALE
 40
1.0
  9
$PROXYGRAPHICS
 70
     1
  9
$MEASUREMENT
 70
     1
  9
$CELWEIGHT
370
    -1
  9
$ENDCAPS
280
     0
  9
$JOINSTYLE
280
     0
  9
$LWDISPLAY
290
     0
  9
$INSUNITS
 70
     4
  9
$HYPERLINKBASE
  1

  9
$STYLESHEET
  1

  9
$XEDIT
290
     1
  9
$CEPSNTYPE
380
     0
  9
$PSTYLEMODE
290
     1
  9
$FINGERPRINTGUID
  2
{6C656BF9-D083-4533-BE12-558A58E26B57}
  9
$VERSIONGUID
  2
{FAEB1C32-E019-11D5-929B-00C0DF256EC4}
  9
$EXTNAMES
290
     1
  9
$PSVPSCALE
 40
0.0
  9
$OLESTARTUP
290
     0
  0
ENDSEC
  0
SECTION
  2
CLASSES
  0
CLASS
  1
ACDBDICTIONARYWDFLT
  2
AcDbDictionaryWithDefault
  3
ObjectDBX Classes
 90
        0
280
     0
281
     0
  0
CLASS
  1
VISUALSTYLE
  2
AcDbVisualStyle
  3
ObjectDBX Classes
 90
     4095
280
     0
281
     0
  0
CLASS
  1
MATERIAL
  2
AcDbMaterial
  3
ObjectDBX Classes
 90
     1153
280
     0
281
     0
  0
CLASS
  1
SCALE
  2
AcDbScale
  3
ObjectDBX Classes
 90
     1153
280
     0
281
     0
  0
CLASS
  1
SUN
  2
AcDbSun
  3
SCENEOE
 90
     1153
280
     0
281
     0
  0
CLASS
  1
DICTIONARYVAR
  2
AcDbDictionaryVar
  3
ObjectDBX Classes
 90
        0
280
     0
281
     0
  0
CLASS
  1
ACDBPLACEHOLDER
  2
AcDbPlaceHolder
  3
ObjectDBX Classes
 90
        0
280
     0
281
     0
  0
CLASS
  1
LAYOUT
  2
AcDbLayout
  3
ObjectDBX Classes
 90
        0
280
     0
281
     0
  0
ENDSEC
  0
SECTION
  2
TABLES
  0
TABLE
  2
VPORT
  5
8
102
{ACAD_XDICTIONARY
360
3DE
102
}
330
0
100
AcDbSymbolTable
 70
     1
  0
VPORT
  5
29
330
8
100
AcDbSymbolTableRecord
100
AcDbViewportTableRecord
  2
*Active
 70
     0
 10
0.0
 20
0.0
 11
1.0
 21
1.0
 12
10.42990654205607
 22
4.5
 13
0.0
 23
0.0
 14
0.5
 24
0.5
 15
0.5
 25
0.5
 16
0.0
 26
0.0
 36
1.0
 17
0.0
 27
0.0
 37
0.0
 40
9.0
 41
1.972972972850329
 42
50.0
 43
0.0
 44
0.0
 50
0.0
 51
0.0
 71
     0
 72
   100
 73
     1
 74
     3
 75
     0
 76
     0
 77
     0
 78
     0
281
     0
 65
     1
110
0.0
120
0.0
130
0.0
111
1.0
121
0.0
131
0.0
112
0.0
122
1.0
132
0.0
 79
     0
146
0.0
  0
ENDTAB
  0
TABLE
  2
LTYPE
  5
5
330
0
100
AcDbSymbolTable
 70
     9
  0
LTYPE
  5
14
330
5
100
AcDbSymbolTableRecord
100
AcDbLinetypeTableRecord
  2
ByBlock
 70
     0
  3

 72
    65
 73
     0
 40
0.0
  0
LTYPE
  5
15
330
5
100
AcDbSymbolTableRecord
100
AcDbLinetypeTableRecord
  2
ByLayer
 70
     0
  3

 72
    65
 73
     0
 40
0.0
  0
LTYPE
  5
16
330
5
100
AcDbSymbolTableRecord
100
AcDbLinetypeTableRecord
  2
Continuous
 70
     0
  3
Solid line
 72
    65
 73
     0
 40
0.0
  0
LTYPE
  5
B9
330
5
100
AcDbSymbolTableRecord
100
AcDbLinetypeTableRecord
  2
DOT
 70
     0
  3
DOT
 72
    65
 73
     2
 40
4.0
 49
6.0
 74
     0
 49
-2.0
 74
     0
  0
LTYPE
  5
BA
330
5
100
AcDbSymbolTableRecord
100
AcDbLinetypeTableRecord
  2
HIDDEN
 70
     0
  3
HIDDEN
 72
    65
 73
     2
 40
4.2
 49
8.4
 74
     0
 49
-4.2
 74
     0
  0
LTYPE
  5
BB
330
5
100
AcDbSymbolTableRecord
100
AcDbLinetypeTableRecord
  2
DASHDOT
 70
     0
  3
DASHDOT
 72
    65
 73
     4
 40
14.5
 49
30.0
 74
     0
 49
-9.0
 74
     0
 49
2.5
 74
     0
 49
-9.0
 74
     0
  0
LTYPE
  5
BC
330
5
100
AcDbSymbolTableRecord
100
AcDbLinetypeTableRecord
  2
PHANTOM
 70
     0
  3
PHANTOM
 72
    65
 73
     6
 40
12.0
 49
30.0
 74
     0
 49
-9.0
 74
     0
 49
2.5
 74
     0
 49
-5.0
 74
     0
 49
2.5
 74
     0
 49
-9.0
 74
     0
  0
LTYPE
  5
BD
330
5
100
AcDbSymbolTableRecord
100
AcDbLinetypeTableRecord
  2
ACAD_ISO14W100
 70
     0
  3
ACAD_ISO14W100
 72
    65
 73
     8
 40
1.5
 49
12.0
 74
     0
 49
-3.0
 74
     0
 49
0.5
 74
     0
 49
-3.0
 74
     0
 49
0.5
 74
     0
 49
-3.0
 74
     0
 49
0.5
 74
     0
 49
-3.0
 74
     0
  0
LTYPE
  5
BE
330
5
100
AcDbSymbolTableRecord
100
AcDbLinetypeTableRecord
  2
ACAD_ISO06W100
 70
     0
  3
ACAD_ISO06W100
 72
    65
 73
     8
 40
13.5
 49
24.0
 74
     0
 49
-3.0
 74
     0
 49
0.5
 74
     0
 49
-3.0
 74
     0
 49
0.5
 74
     0
 49
-3.0
 74
     0
 49
0.5
 74
     0
 49
-3.0
 74
     0
  0
LTYPE
  5
BF
330
5
100
AcDbSymbolTableRecord
100
AcDbLinetypeTableRecord
  2
ACAD_ISO11W100
 70
     0
  3
ACAD_ISO11W100
 72
    65
 73
     6
 40
15.5
 49
12.0
 74
     0
 49
-3.0
 74
     0
 49
12.0
 74
     0
 49
-3.0
 74
     0
 49
0.5
 74
     0
 49
-3.0
 74
     0
  0
LTYPE
  5
C0
330
5
100
AcDbSymbolTableRecord
100
AcDbLinetypeTableRecord
  2
ACAD_ISO13W100
 70
     0
  3
ACAD_ISO13W100
 72
    65
 73
     8
 40
13.0
 49
12.0
 74
     0
 49
-3.0
 74
     0
 49
12.0
 74
     0
 49
-3.0
 74
     0
 49
0.5
 74
     0
 49
-3.0
 74
     0
 49
0.5
 74
     0
 49
-3.0
 74
     0
  0
ENDTAB
  0
TABLE
  2
LAYER
  5
2
330
0
100
AcDbSymbolTable
 70
    35
  0
LAYER
  5
10
330
2
100
AcDbSymbolTableRecord
100
AcDbLayerTableRecord
  2
0
 70
     0
 62
     7
  6
Continuous
370
    -3
390
F
  0
LAYER
  5
C1
330
2
100
AcDbSymbolTableRecord
100
AcDbLayerTableRecord
  2
1
 70
     0
 62
     6
  6
Continuous
370
    53
390
F
  0
LAYER
  5
C2
330
2
100
AcDbSymbolTableRecord
100
AcDbLayerTableRecord
  2
2
 70
     0
 62
     2
  6
HIDDEN
370
    25
390
F
  0
LAYER
  5
C3
330
2
100
AcDbSymbolTableRecord
100
AcDbLayerTableRecord
  2
3
 70
     0
 62
     1
  6
DASHDOT
370
    25
390
F
  0
LAYER
  5
C4
330
2
100
AcDbSymbolTableRecord
100
AcDbLayerTableRecord
  2
4
 70
     0
 62
     2
  6
PHANTOM
370
    25
390
F
  0
LAYER
  5
C5
330
2
100
AcDbSymbolTableRecord
100
AcDbLayerTableRecord
  2
5
 70
     0
 62
     4
  6
Continuous
370
    25
390
F
  0
LAYER
  5
C6
330
2
100
AcDbSymbolTableRecord
100
AcDbLayerTableRecord
  2
6
 70
     0
 62
     3
  6
Continuous
370
    25
390
F
  0
LAYER
  5
C7
330
2
100
AcDbSymbolTableRecord
100
AcDbLayerTableRecord
  2
7
 70
     0
 62
     3
  6
Continuous
370
    25
390
F
  0
LAYER
  5
C8
330
2
100
AcDbSymbolTableRecord
100
AcDbLayerTableRecord
  2
8
 70
     0
 62
     4
  6
Continuous
370
    25
390
F
  0
LAYER
  5
C9
330
2
100
AcDbSymbolTableRecord
100
AcDbLayerTableRecord
  2
9
 70
     0
 62
     7
  6
Continuous
370
    35
390
F
  0
LAYER
  5
CA
330
2
100
AcDbSymbolTableRecord
100
AcDbLayerTableRecord
  2
10
 70
     0
 62
     6
  6
Continuous
370
    53
390
F
  0
LAYER
  5
CB
330
2
100
AcDbSymbolTableRecord
100
AcDbLayerTableRecord
  2
11
 70
     0
 62
     2
  6
HIDDEN
370
    25
390
F
  0
LAYER
  5
CC
330
2
100
AcDbSymbolTableRecord
100
AcDbLayerTableRecord
  2
12
 70
     0
 62
     5
  6
Continuous
370
    53
390
F
  0
LAYER
  5
CD
330
2
100
AcDbSymbolTableRecord
100
AcDbLayerTableRecord
  2
13
 70
     0
 62
     7
  6
Continuous
370
     9
390
F
  0
LAYER
  5
CE
330
2
100
AcDbSymbolTableRecord
100
AcDbLayerTableRecord
  2
14
 70
     0
 62
     7
  6
Continuous
370
     9
390
F
  0
LAYER
  5
CF
330
2
100
AcDbSymbolTableRecord
100
AcDbLayerTableRecord
  2
15
 70
     0
 62
     7
  6
Continuous
370
    35
390
F
  0
LAYER
  5
D0
330
2
100
AcDbSymbolTableRecord
100
AcDbLayerTableRecord
  2
16
 70
     0
 62
     7
  6
HIDDEN
370
     9
390
F
  0
LAYER
  5
D1
330
2
100
AcDbSymbolTableRecord
100
AcDbLayerTableRecord
  2
17
 70
     0
 62
     7
  6
Continuous
370
     9
390
F
  0
LAYER
  5
D2
330
2
100
AcDbSymbolTableRecord
100
AcDbLayerTableRecord
  2
18
 70
     0
 62
     4
  6
Continuous
370
     9
390
F
  0
LAYER
  5
D3
330
2
100
AcDbSymbolTableRecord
100
AcDbLayerTableRecord
  2
19
 70
     0
 62
     7
  6
Continuous
370
     9
390
F
  0
LAYER
  5
D4
330
2
100
AcDbSymbolTableRecord
100
AcDbLayerTableRecord
  2
20
 70
     0
 62
     6
  6
PHANTOM
370
     9
390
F
  0
LAYER
  5
D5
330
2
100
AcDbSymbolTableRecord
100
AcDbLayerTableRecord
  2
21
 70
     0
 62
     1
  6
Continuous
370
     9
390
F
  0
LAYER
  5
D6
330
2
100
AcDbSymbolTableRecord
100
AcDbLayerTableRecord
  2
22
 70
     0
 62
     7
  6
Continuous
370
     9
390
F
  0
LAYER
  5
D7
330
2
100
AcDbSymbolTableRecord
100
AcDbLayerTableRecord
  2
23
 70
     0
 62
     4
  6
Continuous
370
     9
390
F
  0
LAYER
  5
D8
330
2
100
AcDbSymbolTableRecord
100
AcDbLayerTableRecord
  2
24
 70
     0
 62
     1
  6
DASHDOT
370
     9
390
F
  0
LAYER
  5
D9
330
2
100
AcDbSymbolTableRecord
100
AcDbLayerTableRecord
  2
25
 70
     0
 62
     1
  6
HIDDEN
370
     9
390
F
  0
LAYER
  5
DA
330
2
100
AcDbSymbolTableRecord
100
AcDbLayerTableRecord
  2
26
 70
     0
 62
     2
  6
Continuous
370
     9
390
F
  0
LAYER
  5
DB
330
2
100
AcDbSymbolTableRecord
100
AcDbLayerTableRecord
  2
27
 70
     0
 62
     5
  6
HIDDEN
370
     9
390
F
  0
LAYER
  5
DC
330
2
100
AcDbSymbolTableRecord
100
AcDbLayerTableRecord
  2
28
 70
     0
 62
     3
  6
Continuous
370
     9
390
F
  0
LAYER
  5
DD
330
2
100
AcDbSymbolTableRecord
100
AcDbLayerTableRecord
  2
29
 70
     0
 62
     7
  6
HIDDEN
370
    50
390
F
  0
LAYER
  5
DE
330
2
100
AcDbSymbolTableRecord
100
AcDbLayerTableRecord
  2
30
 70
     0
 62
     7
  6
DASHDOT
370
    50
390
F
  0
LAYER
  5
DF
330
2
100
AcDbSymbolTableRecord
100
AcDbLayerTableRecord
  2
31
 70
     0
 62
     7
  6
Continuous
370
     9
390
F
  0
LAYER
  5
E0
330
2
100
AcDbSymbolTableRecord
100
AcDbLayerTableRecord
  2
32
 70
     0
 62
     7
  6
Continuous
370
     9
390
F
  0
LAYER
  5
E1
330
2
100
AcDbSymbolTableRecord
100
AcDbLayerTableRecord
  2
33
 70
     0
 62
     1
  6
DASHDOT
370
     9
390
F
  0
LAYER
  5
E2
330
2
100
AcDbSymbolTableRecord
100
AcDbLayerTableRecord
  2
34
 70
     0
 62
     7
  6
Continuous
370
     9
390
F
  0
ENDTAB
  0
TABLE
  2
STYLE
  5
3
330
0
100
AcDbSymbolTable
 70
     2
  0
STYLE
  5
11
330
3
100
AcDbSymbolTableRecord
100
AcDbTextStyleTableRecord
  2
Standard
 70
     0
 40
0.0
 41
1.0
 50
0.0
 71
     0
 42
5.0
  3
txt
  4
bigfont
  0
STYLE
  5
6C
330
3
100
AcDbSymbolTableRecord
100
AcDbTextStyleTableRecord
  2
T_STANDARD
 70
     4
 40
10.0
 41
1.0
 50
0.0
 71
     0
 42
5.0
  3
txt
  4
bigfont
1001
ACAD
1000

1071
      256
  0
ENDTAB
  0
TABLE
  2
VIEW
  5
6
330
0
100
AcDbSymbolTable
 70
     0
  0
ENDTAB
  0
TABLE
  2
UCS
  5
7
330
0
100
AcDbSymbolTable
 70
     0
  0
ENDTAB
  0
TABLE
  2
APPID
  5
9
330
0
100
AcDbSymbolTable
 70
     2
  0
APPID
  5
12
330
9
100
AcDbSymbolTableRecord
100
AcDbRegAppTableRecord
  2
ACAD
 70
     0
  0
APPID
  5
6B
330
9
100
AcDbSymbolTableRecord
100
AcDbRegAppTableRecord
  2
ODA
 70
     0
  0
ENDTAB
  0
TABLE
  2
DIMSTYLE
  5
A
330
0
100
AcDbSymbolTable
 70
     1
100
AcDbDimStyleTable
  0
DIMSTYLE
105
27
330
A
100
AcDbSymbolTableRecord
100
AcDbDimStyleTableRecord
  2
Standard
 70
     0
178
     0
340
11
  0
ENDTAB
  0
TABLE
  2
BLOCK_RECORD
  5
1
330
0
100
AcDbSymbolTable
 70
    18
  0
BLOCK_RECORD
  5
1F
330
1
100
AcDbSymbolTableRecord
100
AcDbBlockTableRecord
  2
*Model_Space
340
22
  0
BLOCK_RECORD
  5
1B
330
1
100
AcDbSymbolTableRecord
100
AcDbBlockTableRecord
  2
*Paper_Space
340
1E
  0
BLOCK_RECORD
  5
23
330
1
100
AcDbSymbolTableRecord
100
AcDbBlockTableRecord
  2
*Paper_Space0
340
26
  0
BLOCK_RECORD
  5
6D
330
1
100
AcDbSymbolTableRecord
100
AcDbBlockTableRecord
  2
_ORIGIN
340
0
  0
BLOCK_RECORD
  5
72
330
1
100
AcDbSymbolTableRecord
100
AcDbBlockTableRecord
  2
_DOTBLANK
340
0
  0
BLOCK_RECORD
  5
77
330
1
100
AcDbSymbolTableRecord
100
AcDbBlockTableRecord
  2
_DOT
340
0
  0
BLOCK_RECORD
  5
7C
330
1
100
AcDbSymbolTableRecord
100
AcDbBlockTableRecord
  2
_OPEN
340
0
102
{BLKREFS
331
3CE
102
}
  0
BLOCK_RECORD
  5
82
330
1
100
AcDbSymbolTableRecord
100
AcDbBlockTableRecord
  2
_CLOSED
340
0
  0
BLOCK_RECORD
  5
89
330
1
100
AcDbSymbolTableRecord
100
AcDbBlockTableRecord
  2
_CLOSEDBLANK
340
0
  0
BLOCK_RECORD
  5
8F
330
1
100
AcDbSymbolTableRecord
100
AcDbBlockTableRecord
  2
_ARROWFILLED
340
0
  0
BLOCK_RECORD
  5
93
330
1
100
AcDbSymbolTableRecord
100
AcDbBlockTableRecord
  2
_BOXBLANK
340
0
  0
BLOCK_RECORD
  5
9B
330
1
100
AcDbSymbolTableRecord
100
AcDbBlockTableRecord
  2
_BOXFILLED
340
0
  0
BLOCK_RECORD
  5
A0
330
1
100
AcDbSymbolTableRecord
100
AcDbBlockTableRecord
  2
_INTEGRAL
340
0
  0
BLOCK_RECORD
  5
A5
330
1
100
AcDbSymbolTableRecord
100
AcDbBlockTableRecord
  2
_OBLIQUE
340
0
  0
BLOCK_RECORD
  5
A9
330
1
100
AcDbSymbolTableRecord
100
AcDbBlockTableRecord
  2
_NONE
340
0
  0
BLOCK_RECORD
  5
AC
330
1
100
AcDbSymbolTableRecord
100
AcDbBlockTableRecord
  2
MARK_OPEN
340
0
  0
BLOCK_RECORD
  5
B1
330
1
100
AcDbSymbolTableRecord
100
AcDbBlockTableRecord
  2
MARK_ORIGIN
340
0
  0
BLOCK_RECORD
  5
B5
330
1
100
AcDbSymbolTableRecord
100
AcDbBlockTableRecord
  2
MARK_DOT
340
0
  0
BLOCK_RECORD
  5
F1
330
1
100
AcDbSymbolTableRecord
100
AcDbBlockTableRecord
  2
*G16
340
0
102
{BLKREFS
331
F8
102
}
  0
BLOCK_RECORD
  5
127
330
1
100
AcDbSymbolTableRecord
100
AcDbBlockTableRecord
  2
*G17
340
0
102
{BLKREFS
331
12E
102
}
  0
ENDTAB
  0
ENDSEC
  0
SECTION
  2
BLOCKS
  0
BLOCK
  5
20
330
1F
100
AcDbEntity
  8
0
100
AcDbBlockBegin
  2
*Model_Space
 70
     0
 10
0.0
 20
0.0
 30
0.0
  3
*Model_Space
  1
*Model_Space
  0
ENDBLK
  5
21
330
1F
100
AcDbEntity
  8
0
100
AcDbBlockEnd
  0
BLOCK
  5
1C
330
1B
100
AcDbEntity
 67
     1
  8
0
100
AcDbBlockBegin
  2
*Paper_Space
 70
     0
 10
0.0
 20
0.0
 30
0.0
  3
*Paper_Space
  1
*Paper_Space
  0
ENDBLK
  5
1D
330
1B
100
AcDbEntity
 67
     1
  8
0
100
AcDbBlockEnd
  0
BLOCK
  5
24
330
23
100
AcDbEntity
  8
0
100
AcDbBlockBegin
  2
*Paper_Space0
 70
     0
 10
0.0
 20
0.0
 30
0.0
  3
*Paper_Space0
  1
*Paper_Space0
  0
ENDBLK
  5
25
330
23
100
AcDbEntity
  8
0
100
AcDbBlockEnd
  0
BLOCK
  5
70
330
6D
100
AcDbEntity
  8
0
100
AcDbBlockBegin
  2
_ORIGIN
 70
     0
 10
0.0
 20
0.0
 30
0.0
  3
_ORIGIN
  1
_ORIGIN
  0
CIRCLE
  5
6E
330
6D
100
AcDbEntity
  8
0
 62
     0
100
AcDbCircle
 10
0.0
 20
0.0
 30
0.0
 40
0.5
  0
LINE
  5
6F
330
6D
100
AcDbEntity
  8
0
 62
     0
100
AcDbLine
 10
0.0
 20
0.0
 30
0.0
 11
-1.0
 21
0.0
 31
0.0
  0
ENDBLK
  5
71
330
6D
100
AcDbEntity
  8
0
100
AcDbBlockEnd
  0
BLOCK
  5
75
330
72
100
AcDbEntity
  8
0
100
AcDbBlockBegin
  2
_DOTBLANK
 70
     0
 10
0.0
 20
0.0
 30
0.0
  3
_DOTBLANK
  1
_DOTBLANK
  0
CIRCLE
  5
73
330
72
100
AcDbEntity
  8
0
 62
     0
100
AcDbCircle
 10
0.0
 20
0.0
 30
0.0
 40
0.5
  0
LINE
  5
74
330
72
100
AcDbEntity
  8
0
 62
     0
100
AcDbLine
 10
-0.5
 20
0.0
 30
0.0
 11
-1.0
 21
0.0
 31
0.0
  0
ENDBLK
  5
76
330
72
100
AcDbEntity
  8
0
100
AcDbBlockEnd
  0
BLOCK
  5
7A
330
77
100
AcDbEntity
  8
0
100
AcDbBlockBegin
  2
_DOT
 70
     0
 10
0.0
 20
0.0
 30
0.0
  3
_DOT
  1
_DOT
  0
LWPOLYLINE
  5
78
330
77
100
AcDbEntity
  8
0
 62
     0
100
AcDbPolyline
 90
        2
 70
     1
 43
0.5
 10
-0.25
 20
0.0
 42
1.0
 10
0.25
 20
0.0
 42
1.0
  0
LINE
  5
79
330
77
100
AcDbEntity
  8
0
 62
     0
100
AcDbLine
 10
-0.5
 20
0.0
 30
0.0
 11
-1.0
 21
0.0
 31
0.0
  0
ENDBLK
  5
7B
330
77
100
AcDbEntity
  8
0
100
AcDbBlockEnd
  0
BLOCK
  5
80
330
7C
100
AcDbEntity
  8
0
100
AcDbBlockBegin
  2
_OPEN
 70
     0
 10
0.0
 20
0.0
 30
0.0
  3
_OPEN
  1
_OPEN
  0
LINE
  5
7D
330
7C
100
AcDbEntity
  8
0
 62
     0
100
AcDbLine
 10
0.0
 20
0.0
 30
0.0
 11
-1.0
 21
0.1666666666666667
 31
0.0
  0
LINE
  5
7E
330
7C
100
AcDbEntity
  8
0
 62
     0
100
AcDbLine
 10
0.0
 20
0.0
 30
0.0
 11
-1.0
 21
-0.1666666666666667
 31
0.0
  0
LINE
  5
7F
330
7C
100
AcDbEntity
  8
0
 62
     0
100
AcDbLine
 10
0.0
 20
0.0
 30
0.0
 11
-1.0
 21
0.0
 31
0.0
  0
ENDBLK
  5
81
330
7C
100
AcDbEntity
  8
0
100
AcDbBlockEnd
  0
BLOCK
  5
87
330
82
100
AcDbEntity
  8
0
100
AcDbBlockBegin
  2
_CLOSED
 70
     0
 10
0.0
 20
0.0
 30
0.0
  3
_CLOSED
  1
_CLOSED
  0
LINE
  5
83
330
82
100
AcDbEntity
  8
0
 62
     0
100
AcDbLine
 10
0.0
 20
0.0
 30
0.0
 11
-1.0
 21
0.1666666666666667
 31
0.0
  0
LINE
  5
84
330
82
100
AcDbEntity
  8
0
 62
     0
100
AcDbLine
 10
0.0
 20
0.0
 30
0.0
 11
-1.0
 21
-0.1666666666666667
 31
0.0
  0
LINE
  5
85
330
82
100
AcDbEntity
  8
0
 62
     0
100
AcDbLine
 10
-1.0
 20
0.1666666666666667
 30
0.0
 11
-1.0
 21
-0.1666666666666667
 31
0.0
  0
LINE
  5
86
330
82
100
AcDbEntity
  8
0
 62
     0
100
AcDbLine
 10
0.0
 20
0.0
 30
0.0
 11
-1.0
 21
0.0
 31
0.0
  0
ENDBLK
  5
88
330
82
100
AcDbEntity
  8
0
100
AcDbBlockEnd
  0
BLOCK
  5
8D
330
89
100
AcDbEntity
  8
0
100
AcDbBlockBegin
  2
_CLOSEDBLANK
 70
     0
 10
0.0
 20
0.0
 30
0.0
  3
_CLOSEDBLANK
  1
_CLOSEDBLANK
  0
LINE
  5
8A
330
89
100
AcDbEntity
  8
0
 62
     0
100
AcDbLine
 10
0.0
 20
0.0
 30
0.0
 11
-1.0
 21
0.1666666666666667
 31
0.0
  0
LINE
  5
8B
330
89
100
AcDbEntity
  8
0
 62
     0
100
AcDbLine
 10
0.0
 20
0.0
 30
0.0
 11
-1.0
 21
-0.1666666666666667
 31
0.0
  0
LINE
  5
8C
330
89
100
AcDbEntity
  8
0
 62
     0
100
AcDbLine
 10
-1.0
 20
0.1666666666666667
 30
0.0
 11
-1.0
 21
-0.1666666666666667
 31
0.0
  0
ENDBLK
  5
8E
330
89
100
AcDbEntity
  8
0
100
AcDbBlockEnd
  0
BLOCK
  5
91
330
8F
100
AcDbEntity
  8
0
100
AcDbBlockBegin
  2
_ARROWFILLED
 70
     0
 10
0.0
 20
0.0
 30
0.0
  3
_ARROWFILLED
  1
_ARROWFILLED
  0
SOLID
  5
90
330
8F
100
AcDbEntity
  8
0
 62
     0
100
AcDbTrace
 10
0.0
 20
0.0
 30
0.0
 11
-1.0
 21
-0.1666666666666667
 31
0.0
 12
-1.0
 22
0.1666666666666667
 32
0.0
 13
0.0
 23
0.0
 33
0.0
  0
ENDBLK
  5
92
330
8F
100
AcDbEntity
  8
0
100
AcDbBlockEnd
  0
BLOCK
  5
99
330
93
100
AcDbEntity
  8
0
100
AcDbBlockBegin
  2
_BOXBLANK
 70
     0
 10
0.0
 20
0.0
 30
0.0
  3
_BOXBLANK
  1
_BOXBLANK
  0
LINE
  5
94
330
93
100
AcDbEntity
  8
0
 62
     0
100
AcDbLine
 10
-0.5
 20
-0.5
 30
0.0
 11
0.5
 21
-0.5
 31
0.0
  0
LINE
  5
95
330
93
100
AcDbEntity
  8
0
 62
     0
100
AcDbLine
 10
0.5
 20
-0.5
 30
0.0
 11
0.5
 21
0.5
 31
0.0
  0
LINE
  5
96
330
93
100
AcDbEntity
  8
0
 62
     0
100
AcDbLine
 10
0.5
 20
0.5
 30
0.0
 11
-0.5
 21
0.5
 31
0.0
  0
LINE
  5
97
330
93
100
AcDbEntity
  8
0
 62
     0
100
AcDbLine
 10
-0.5
 20
0.5
 30
0.0
 11
-0.5
 21
-0.5
 31
0.0
  0
LINE
  5
98
330
93
100
AcDbEntity
  8
0
 62
     0
100
AcDbLine
 10
-0.5
 20
0.0
 30
0.0
 11
-1.0
 21
0.0
 31
0.0
  0
ENDBLK
  5
9A
330
93
100
AcDbEntity
  8
0
100
AcDbBlockEnd
  0
BLOCK
  5
9E
330
9B
100
AcDbEntity
  8
0
100
AcDbBlockBegin
  2
_BOXFILLED
 70
     0
 10
0.0
 20
0.0
 30
0.0
  3
_BOXFILLED
  1
_BOXFILLED
  0
SOLID
  5
9C
330
9B
100
AcDbEntity
  8
0
 62
     0
100
AcDbTrace
 10
-0.5
 20
0.5
 30
0.0
 11
0.5
 21
0.5
 31
0.0
 12
-0.5
 22
-0.5
 32
0.0
 13
0.5
 23
-0.5
 33
0.0
  0
LINE
  5
9D
330
9B
100
AcDbEntity
  8
0
 62
     0
100
AcDbLine
 10
-0.5
 20
0.0
 30
0.0
 11
-1.0
 21
0.0
 31
0.0
  0
ENDBLK
  5
9F
330
9B
100
AcDbEntity
  8
0
100
AcDbBlockEnd
  0
BLOCK
  5
A3
330
A0
100
AcDbEntity
  8
0
100
AcDbBlockBegin
  2
_INTEGRAL
 70
     0
 10
0.0
 20
0.0
 30
0.0
  3
_INTEGRAL
  1
_INTEGRAL
  0
ARC
  5
A1
330
A0
100
AcDbEntity
  8
0
 62
     0
100
AcDbCircle
 10
0.444888
 20
-0.0913346
 30
0.0
 40
0.4541666
100
AcDbArc
 50
101.9999999999999
 51
167.9999999999998
  0
ARC
  5
A2
330
A0
100
AcDbEntity
  8
0
 62
     0
100
AcDbCircle
 10
-0.444888
 20
0.0913346
 30
0.0
 40
0.4541666
100
AcDbArc
 50
281.9999999999997
 51
347.9999999999997
  0
ENDBLK
  5
A4
330
A0
100
AcDbEntity
  8
0
100
AcDbBlockEnd
  0
BLOCK
  5
A7
330
A5
100
AcDbEntity
  8
0
100
AcDbBlockBegin
  2
_OBLIQUE
 70
     0
 10
0.0
 20
0.0
 30
0.0
  3
_OBLIQUE
  1
_OBLIQUE
  0
LINE
  5
A6
330
A5
100
AcDbEntity
  8
0
 62
     0
100
AcDbLine
 10
-0.5
 20
-0.5
 30
0.0
 11
0.5
 21
0.5
 31
0.0
  0
ENDBLK
  5
A8
330
A5
100
AcDbEntity
  8
0
100
AcDbBlockEnd
  0
BLOCK
  5
AA
330
A9
100
AcDbEntity
  8
0
100
AcDbBlockBegin
  2
_NONE
 70
     0
 10
0.0
 20
0.0
 30
0.0
  3
_NONE
  1
_NONE
  0
ENDBLK
  5
AB
330
A9
100
AcDbEntity
  8
0
100
AcDbBlockEnd
  0
BLOCK
  5
AF
330
AC
100
AcDbEntity
  8
0
100
AcDbBlockBegin
  2
MARK_OPEN
 70
     0
 10
0.0
 20
0.0
 30
0.0
  3
MARK_OPEN
  1
MARK_OPEN
  0
LINE
  5
AD
330
AC
100
AcDbEntity
  8
0
 62
     0
100
AcDbLine
 10
0.0
 20
0.0
 30
0.0
 11
-1.0
 21
0.1666666666666667
 31
0.0
  0
LINE
  5
AE
330
AC
100
AcDbEntity
  8
0
 62
     0
100
AcDbLine
 10
0.0
 20
0.0
 30
0.0
 11
-1.0
 21
-0.1666666666666667
 31
0.0
  0
ENDBLK
  5
B0
330
AC
100
AcDbEntity
  8
0
100
AcDbBlockEnd
  0
BLOCK
  5
B3
330
B1
100
AcDbEntity
  8
0
100
AcDbBlockBegin
  2
MARK_ORIGIN
 70
     0
 10
0.0
 20
0.0
 30
0.0
  3
MARK_ORIGIN
  1
MARK_ORIGIN
  0
CIRCLE
  5
B2
330
B1
100
AcDbEntity
  8
0
 62
     0
100
AcDbCircle
 10
0.0
 20
0.0
 30
0.0
 40
0.5
  0
ENDBLK
  5
B4
330
B1
100
AcDbEntity
  8
0
100
AcDbBlockEnd
  0
BLOCK
  5
B7
330
B5
100
AcDbEntity
  8
0
100
AcDbBlockBegin
  2
MARK_DOT
 70
     0
 10
0.0
 20
0.0
 30
0.0
  3
MARK_DOT
  1
MARK_DOT
  0
LWPOLYLINE
  5
B6
330
B5
100
AcDbEntity
  8
0
 62
     0
100
AcDbPolyline
 90
        2
 70
     1
 43
0.5
 10
-0.25
 20
0.0
 42
1.0
 10
0.25
 20
0.0
 42
1.0
  0
ENDBLK
  5
B8
330
B5
100
AcDbEntity
  8
0
100
AcDbBlockEnd
  0
BLOCK
  5
F2
330
F1
100
AcDbEntity
  8
0
100
AcDbBlockBegin
  2
*G16
 70
     1
 10
0.0
 20
0.0
 30
0.0
  3
*G16
  1
*G16
  0
LINE
  5
F4
330
F1
100
AcDbEntity
  8
12
  6
Continuous
 62
     5
370
    53
100
AcDbLine
 10
181.0211072784675
 20
0.0172721585058753
 30
0.0
 11
181.0211072784675
 21
283.0172721585058
 31
0.0
  0
LINE
  5
F5
330
F1
100
AcDbEntity
  8
12
  6
Continuous
 62
     5
370
    53
100
AcDbLine
 10
0.0211080024674857
 20
283.0172721585058
 30
0.0
 11
181.0211072784675
 21
283.0172721585058
 31
0.0
  0
LINE
  5
F6
330
F1
100
AcDbEntity
  8
12
  6
Continuous
 62
     5
370
    53
100
AcDbLine
 10
181.0211072784675
 20
0.0172721585058753
 30
0.0
 11
0.0211080024674857
 21
0.0172721585058753
 31
0.0
  0
LINE
  5
F7
330
F1
100
AcDbEntity
  8
12
  6
Continuous
 62
     5
370
    53
100
AcDbLine
 10
0.0211080024674857
 20
0.0172721585058753
 30
0.0
 11
0.0211080024674857
 21
283.0172721585058
 31
0.0
  0
ENDBLK
  5
F3
330
F1
100
AcDbEntity
  8
0
100
AcDbBlockEnd
  0
BLOCK
  5
128
330
127
100
AcDbEntity
  8
0
100
AcDbBlockBegin
  2
*G17
 70
     1
 10
0.0
 20
0.0
 30
0.0
  3
*G17
  1
*G17
  0
LINE
  5
12A
330
127
100
AcDbEntity
  8
12
  6
Continuous
 62
     5
370
    53
100
AcDbLine
 10
362.0211065544675
 20
0.0172721585058753
 30
0.0
 11
362.0211065544675
 21
283.0172721585058
 31
0.0
  0
LINE
  5
12B
330
127
100
AcDbEntity
  8
12
  6
Continuous
 62
     5
370
    53
100
AcDbLine
 10
181.0211072784675
 20
283.0172721585058
 30
0.0
 11
362.0211065544675
 21
283.0172721585058
 31
0.0
  0
LINE
  5
12C
330
127
100
AcDbEntity
  8
12
  6
Continuous
 62
     5
370
    53
100
AcDbLine
 10
362.0211065544675
 20
0.0172721585058753
 30
0.0
 11
181.0211072784675
 21
0.0172721585058753
 31
0.0
  0
LINE
  5
12D
330
127
100
AcDbEntity
  8
12
  6
Continuous
 62
     5
370
    53
100
AcDbLine
 10
181.0211072784675
 20
0.0172721585058753
 30
0.0
 11
181.0211072784675
 21
283.0172721585058
 31
0.0
  0
ENDBLK
  5
129
330
127
100
AcDbEntity
  8
0
100
AcDbBlockEnd
  0
ENDSEC
  0
SECTION
  2
ENTITIES
  0
LINE
  5
E3
330
1F
100
AcDbEntity
  8
9
  6
Continuous
 62
     7
370
    35
100
AcDbLine
 10
91.52110727846743
 20
277.0172721585058
 30
0.0
 11
181.0211072784675
 21
277.0172721585058
 31
0.0
  0
LINE
  5
E4
330
1F
100
AcDbEntity
  8
9
  6
Continuous
 62
     7
370
    35
100
AcDbLine
 10
91.52110727846743
 20
271.0172721585058
 30
0.0
 11
181.0211072784675
 21
271.0172721585058
 31
0.0
  0
MTEXT
  5
E5
330
1F
100
AcDbEntity
  8
7
  6
Continuous
 62
     3
370
     9
100
AcDbMText
 10
116.5211072784674
 20
280.0172721585058
 30
0.0
 40
3.3
 41
18.04110721644
 71
     5
 72
     1
  1
{\fＭＳ Ｐゴシック;\W0.714286;名      称}
 73
     1
 44
1.0
1001
ACAD
1000
ACAD_MTEXT_DEFINED_HEIGHT_BEGIN
1070
    46
1040
3.3
1000
ACAD_MTEXT_DEFINED_HEIGHT_END
  0
MTEXT
  5
E6
330
1F
100
AcDbEntity
  8
7
  6
Continuous
 62
     3
370
     9
100
AcDbMText
 10
96.52110727846748
 20
280.0172721585058
 30
0.0
 40
3.3
 41
9.258200846136
 71
     5
 72
     1
  1
{\fＭＳ Ｐゴシック;\W0.714286;番号}
 73
     1
 44
1.0
1001
ACAD
1000
ACAD_MTEXT_DEFINED_HEIGHT_BEGIN
1070
    46
1040
3.3
1000
ACAD_MTEXT_DEFINED_HEIGHT_END
  0
LINE
  5
E7
330
1F
100
AcDbEntity
  8
9
  6
Continuous
 62
     7
370
    35
100
AcDbLine
 10
91.52110727846743
 20
271.0172721585058
 30
0.0
 11
91.52110727846743
 21
283.0172721585058
 31
0.0
  0
LINE
  5
E8
330
1F
100
AcDbEntity
  8
9
  6
Continuous
 62
     7
370
    35
100
AcDbLine
 10
101.5211072784674
 20
283.0172721585058
 30
0.0
 11
101.5211072784674
 21
271.0172721585058
 31
0.0
  0
MTEXT
  5
E9
330
1F
100
AcDbEntity
  8
7
  6
Continuous
 62
     3
370
     9
100
AcDbMText
 10
142.0211072784674
 20
280.0172721585058
 30
0.0
 40
3.3
 41
15.169257496272
 71
     5
 72
     1
  1
{\fＭＳ Ｐゴシック;\W0.714286;材    質}
 73
     1
 44
1.0
1001
ACAD
1000
ACAD_MTEXT_DEFINED_HEIGHT_BEGIN
1070
    46
1040
3.3
1000
ACAD_MTEXT_DEFINED_HEIGHT_END
  0
LINE
  5
EA
330
1F
100
AcDbEntity
  8
9
  6
Continuous
 62
     7
370
    35
100
AcDbLine
 10
131.5211072784674
 20
283.0172721585058
 30
0.0
 11
131.5211072784674
 21
271.0172721585058
 31
0.0
  0
LINE
  5
EB
330
1F
100
AcDbEntity
  8
9
  6
Continuous
 62
     7
370
    35
100
AcDbLine
 10
152.5211072784674
 20
271.0172721585058
 30
0.0
 11
152.5211072784674
 21
283.0172721585058
 31
0.0
  0
MTEXT
  5
EC
330
1F
100
AcDbEntity
  8
7
  6
Continuous
 62
     3
370
     9
100
AcDbMText
 10
172.5211072784674
 20
280.0172721585058
 30
0.0
 40
3.3
 41
15.189340361448
 71
     5
 72
     1
  1
{\fＭＳ Ｐゴシック;\W0.714286;備    考}
 73
     1
 44
1.0
1001
ACAD
1000
ACAD_MTEXT_DEFINED_HEIGHT_BEGIN
1070
    46
1040
3.3
1000
ACAD_MTEXT_DEFINED_HEIGHT_END
  0
MTEXT
  5
ED
330
1F
100
AcDbEntity
  8
7
  6
Continuous
 62
     3
370
     9
100
AcDbMText
 10
158.0211072784674
 20
280.0172721585058
 30
0.0
 40
3.3
 41
9.335185162644
 71
     5
 72
     1
  1
{\fＭＳ Ｐゴシック;\W0.714286;個数}
 73
     1
 44
1.0
1001
ACAD
1000
ACAD_MTEXT_DEFINED_HEIGHT_BEGIN
1070
    46
1040
3.3
1000
ACAD_MTEXT_DEFINED_HEIGHT_END
  0
LINE
  5
EE
330
1F
100
AcDbEntity
  8
9
  6
Continuous
 62
     7
370
    35
100
AcDbLine
 10
163.5211072784674
 20
283.0172721585058
 30
0.0
 11
163.5211072784674
 21
271.0172721585058
 31
0.0
  0
MTEXT
  5
EF
330
1F
100
AcDbEntity
  8
7
  6
Continuous
 62
     3
370
     9
100
AcDbMText
 10
96.52110727846748
 20
274.0172721585058
 30
0.0
 40
3.3
 41
1.007490402996
 71
     5
 72
     1
  1
{\fＭＳ Ｐゴシック;\W0.714286;1}
 73
     1
 44
1.0
1001
ACAD
1000
ACAD_MTEXT_DEFINED_HEIGHT_BEGIN
1070
    46
1040
3.3
1000
ACAD_MTEXT_DEFINED_HEIGHT_END
  0
MTEXT
  5
F0
330
1F
100
AcDbEntity
  8
7
  6
Continuous
 62
     3
370
     9
100
AcDbMText
 10
142.0211072784674
 20
274.0172721585058
 30
0.0
 40
3.3
 41
0.0
 71
     5
 72
     1
  1
{\fＭＳ Ｐゴシック;\W0.714286;      }
 73
     1
 44
1.0
1001
ACAD
1000
ACAD_MTEXT_DEFINED_HEIGHT_BEGIN
1070
    46
1040
3.3
1000
ACAD_MTEXT_DEFINED_HEIGHT_END
  0
INSERT
  5
F8
330
1F
100
AcDbEntity
  8
0
100
AcDbBlockReference
  2
*G16
 10
0.0
 20
0.0
 30
0.0
  0
MTEXT
  5
F9
330
1F
100
AcDbEntity
  8
7
  6
Continuous
 62
     3
370
     9
100
AcDbMText
 10
157.9149414791624
 20
274.0172721585058
 30
0.0
 40
3.3
 41
1.007490402996
 71
     5
 72
     1
  1
{\fＭＳ Ｐゴシック;\W0.714286;1}
 73
     1
 44
1.0
1001
ACAD
1000
ACAD_MTEXT_DEFINED_HEIGHT_BEGIN
1070
    46
1040
3.3
1000
ACAD_MTEXT_DEFINED_HEIGHT_END
  0
MTEXT
  5
FA
330
1F
100
AcDbEntity
  8
6
  6
Continuous
 62
     3
370
     9
100
AcDbMText
 10
151.064903447966
 20
2.86669605719112
 30
0.0
 40
3.300000000000001
 41
19.14566480112
 71
     7
 72
     1
  1
{\fＭＳ Ｐゴシック;\W0.714286;尺度　1/1}
 73
     1
 44
1.0
1001
ACAD
1000
ACAD_MTEXT_DEFINED_HEIGHT_BEGIN
1070
    46
1040
3.300000000000001
1000
ACAD_MTEXT_DEFINED_HEIGHT_END
  0
POLYLINE
  5
FB
330
1F
100
AcDbEntity
  8
4
  6
PHANTOM
 62
     2
370
    25
100
AcDb2dPolyline
 66
     1
 10
0.0
 20
0.0
 30
0.0
  0
VERTEX
  5
FC
330
FB
100
AcDbEntity
  8
4
  6
PHANTOM
 62
     2
370
    25
100
AcDbVertex
100
AcDb2dVertex
 10
73.02119144048355
 20
105.4059692490783
 30
0.0
  0
VERTEX
  5
FD
330
FB
100
AcDbEntity
  8
4
  6
PHANTOM
 62
     2
370
    25
100
AcDbVertex
100
AcDb2dVertex
 10
73.02119144048355
 20
84.56825159793242
 30
0.0
  0
SEQEND
  5
FE
330
FB
100
AcDbEntity
  8
4
  6
PHANTOM
 62
     2
370
    25
  0
ARC
  5
FF
330
1F
100
AcDbEntity
  8
4
  6
PHANTOM
 62
     2
370
    25
100
AcDbCircle
 10
81.52119144048358
 20
79.8432515979325
 30
0.0
 40
9.724999999999987
100
AcDbArc
 50
29.06891016107988
 51
150.9310898389202
  0
ARC
  5
100
330
1F
100
AcDbEntity
  8
4
  6
PHANTOM
 62
     2
370
    25
100
AcDbCircle
 10
98.52119144048346
 20
89.29325159793247
 30
0.0
 40
9.724999999999937
100
AcDbArc
 50
209.0689101610801
 51
330.9310898389204
  0
POLYLINE
  5
101
330
1F
100
AcDbEntity
  8
4
  6
PHANTOM
 62
     2
370
    25
100
AcDb2dPolyline
 66
     1
 10
0.0
 20
0.0
 30
0.0
  0
VERTEX
  5
102
330
101
100
AcDbEntity
  8
4
  6
PHANTOM
 62
     2
370
    25
100
AcDbVertex
100
AcDb2dVertex
 10
107.0211914404835
 20
84.56825159793271
 30
0.0
  0
VERTEX
  5
103
330
101
100
AcDbEntity
  8
4
  6
PHANTOM
 62
     2
370
    25
100
AcDbVertex
100
AcDb2dVertex
 10
107.0211914404835
 20
105.4059692490783
 30
0.0
  0
SEQEND
  5
104
330
101
100
AcDbEntity
  8
4
  6
PHANTOM
 62
     2
370
    25
  0
ARC
  5
105
330
1F
100
AcDbEntity
  8
4
  6
PHANTOM
 62
     2
370
    25
100
AcDbCircle
 10
81.5211914404836
 20
89.29325159793251
 30
0.0
 40
9.725000000000183
100
AcDbArc
 50
209.0689101610795
 51
330.931089838917
  0
ARC
  5
106
330
1F
100
AcDbEntity
  8
4
  6
PHANTOM
 62
     2
370
    25
100
AcDbCircle
 10
102.5211914404828
 20
145.9059692490773
 30
0.0
 40
1.500000000000639
100
AcDbArc
 50
0.0000000000358258
 51
89.99999999999991
  0
POLYLINE
  5
107
330
1F
100
AcDbEntity
  8
4
  6
PHANTOM
 62
     2
370
    25
100
AcDb2dPolyline
 66
     1
 10
0.0
 20
0.0
 30
0.0
  0
VERTEX
  5
108
330
107
100
AcDbEntity
  8
4
  6
PHANTOM
 62
     2
370
    25
100
AcDbVertex
100
AcDb2dVertex
 10
102.5211914404836
 20
147.4059692490782
 30
0.0
  0
VERTEX
  5
109
330
107
100
AcDbEntity
  8
4
  6
PHANTOM
 62
     2
370
    25
100
AcDbVertex
100
AcDb2dVertex
 10
79.42714026948704
 20
147.4059692490782
 30
0.0
  0
VERTEX
  5
10A
330
107
100
AcDbEntity
  8
4
  6
PHANTOM
 62
     2
370
    25
100
AcDbVertex
100
AcDb2dVertex
 10
77.52119144048355
 20
147.4059692490782
 30
0.0
  0
SEQEND
  5
10B
330
107
100
AcDbEntity
  8
4
  6
PHANTOM
 62
     2
370
    25
  0
ARC
  5
10C
330
1F
100
AcDbEntity
  8
4
  6
PHANTOM
 62
     2
370
    25
100
AcDbCircle
 10
77.5211914404843
 20
145.9059692490776
 30
0.0
 40
1.500000000000597
100
AcDbArc
 50
89.99999999999991
 51
179.9999999999772
  0
POLYLINE
  5
10D
330
1F
100
AcDbEntity
  8
4
  6
PHANTOM
 62
     2
370
    25
100
AcDb2dPolyline
 66
     1
 10
0.0
 20
0.0
 30
0.0
  0
VERTEX
  5
10E
330
10D
100
AcDbEntity
  8
4
  6
PHANTOM
 62
     2
370
    25
100
AcDbVertex
100
AcDb2dVertex
 10
76.02119144048355
 20
145.9059692490782
 30
0.0
  0
VERTEX
  5
10F
330
10D
100
AcDbEntity
  8
4
  6
PHANTOM
 62
     2
370
    25
100
AcDbVertex
100
AcDb2dVertex
 10
76.02119144048355
 20
134.8599532228603
 30
0.0
  0
SEQEND
  5
110
330
10D
100
AcDbEntity
  8
4
  6
PHANTOM
 62
     2
370
    25
  0
ARC
  5
111
330
1F
100
AcDbEntity
  8
4
  6
PHANTOM
 62
     2
370
    25
100
AcDbCircle
 10
71.02119144048366
 20
134.8599532228602
 30
0.0
 40
4.999999999999886
100
AcDbArc
 50
269.9999999999993
 51
0.0000000000009771
  0
ARC
  5
112
330
1F
100
AcDbEntity
  8
4
  6
PHANTOM
 62
     2
370
    25
100
AcDbCircle
 10
71.02119144048135
 20
127.8599532228628
 30
0.0
 40
1.999999999997485
100
AcDbArc
 50
89.99999999999991
 51
180.0000000000713
  0
POLYLINE
  5
113
330
1F
100
AcDbEntity
  8
4
  6
PHANTOM
 62
     2
370
    25
100
AcDb2dPolyline
 66
     1
 10
0.0
 20
0.0
 30
0.0
  0
VERTEX
  5
114
330
113
100
AcDbEntity
  8
4
  6
PHANTOM
 62
     2
370
    25
100
AcDbVertex
100
AcDb2dVertex
 10
69.02119144048355
 20
127.8599532228603
 30
0.0
  0
VERTEX
  5
115
330
113
100
AcDbEntity
  8
4
  6
PHANTOM
 62
     2
370
    25
100
AcDbVertex
100
AcDb2dVertex
 10
69.0211914404836
 20
107.4059692490783
 30
0.0
  0
SEQEND
  5
116
330
113
100
AcDbEntity
  8
4
  6
PHANTOM
 62
     2
370
    25
  0
ARC
  5
117
330
1F
100
AcDbEntity
  8
4
  6
PHANTOM
 62
     2
370
    25
100
AcDbCircle
 10
71.02119144048336
 20
107.4059692490782
 30
0.0
 40
1.999999999999758
100
AcDbArc
 50
179.9999999999959
 51
269.9999999999993
  0
POLYLINE
  5
118
330
1F
100
AcDbEntity
  8
4
  6
PHANTOM
 62
     2
370
    25
100
AcDb2dPolyline
 66
     1
 10
0.0
 20
0.0
 30
0.0
  0
VERTEX
  5
119
330
118
100
AcDbEntity
  8
4
  6
PHANTOM
 62
     2
370
    25
100
AcDbVertex
100
AcDb2dVertex
 10
71.02119144048355
 20
105.4059692490783
 30
0.0
  0
VERTEX
  5
11A
330
118
100
AcDbEntity
  8
4
  6
PHANTOM
 62
     2
370
    25
100
AcDbVertex
100
AcDb2dVertex
 10
109.0211914404835
 20
105.4059692490783
 30
0.0
  0
SEQEND
  5
11B
330
118
100
AcDbEntity
  8
4
  6
PHANTOM
 62
     2
370
    25
  0
ARC
  5
11C
330
1F
100
AcDbEntity
  8
4
  6
PHANTOM
 62
     2
370
    25
100
AcDbCircle
 10
109.021191440482
 20
107.4059692490795
 30
0.0
 40
2.000000000001208
100
AcDbArc
 50
269.9999999999993
 51
359.9999999999646
  0
POLYLINE
  5
11D
330
1F
100
AcDbEntity
  8
4
  6
PHANTOM
 62
     2
370
    25
100
AcDb2dPolyline
 66
     1
 10
0.0
 20
0.0
 30
0.0
  0
VERTEX
  5
11E
330
11D
100
AcDbEntity
  8
4
  6
PHANTOM
 62
     2
370
    25
100
AcDbVertex
100
AcDb2dVertex
 10
111.0211914404835
 20
107.4059692490783
 30
0.0
  0
VERTEX
  5
11F
330
11D
100
AcDbEntity
  8
4
  6
PHANTOM
 62
     2
370
    25
100
AcDbVertex
100
AcDb2dVertex
 10
111.0211914404835
 20
127.8599532228603
 30
0.0
  0
SEQEND
  5
120
330
11D
100
AcDbEntity
  8
4
  6
PHANTOM
 62
     2
370
    25
  0
ARC
  5
121
330
1F
100
AcDbEntity
  8
4
  6
PHANTOM
 62
     2
370
    25
100
AcDbCircle
 10
109.0211914404855
 20
127.8599532228618
 30
0.0
 40
1.99999999999801
100
AcDbArc
 50
359.9999999999561
 51
89.99999999999991
  0
ARC
  5
122
330
1F
100
AcDbEntity
  8
4
  6
PHANTOM
 62
     2
370
    25
100
AcDbCircle
 10
109.0211914404837
 20
134.8599532228602
 30
0.0
 40
4.999999999999943
100
AcDbArc
 50
179.9999999999994
 51
269.9999999999993
  0
POLYLINE
  5
123
330
1F
100
AcDbEntity
  8
4
  6
PHANTOM
 62
     2
370
    25
100
AcDb2dPolyline
 66
     1
 10
0.0
 20
0.0
 30
0.0
  0
VERTEX
  5
124
330
123
100
AcDbEntity
  8
4
  6
PHANTOM
 62
     2
370
    25
100
AcDbVertex
100
AcDb2dVertex
 10
104.0211914404835
 20
134.8599532228603
 30
0.0
  0
VERTEX
  5
125
330
123
100
AcDbEntity
  8
4
  6
PHANTOM
 62
     2
370
    25
100
AcDbVertex
100
AcDb2dVertex
 10
104.0211914404835
 20
145.9059692490782
 30
0.0
  0
SEQEND
  5
126
330
123
100
AcDbEntity
  8
4
  6
PHANTOM
 62
     2
370
    25
  0
INSERT
  5
12E
330
1F
100
AcDbEntity
  8
0
100
AcDbBlockReference
  2
*G17
 10
0.0
 20
0.0
 30
0.0
  0
ARC
  5
12F
330
1F
100
AcDbEntity
  8
4
  6
PHANTOM
 62
     2
370
    25
100
AcDbCircle
 10
283.5211907164829
 20
145.9059692490758
 30
0.0
 40
1.500000000000739
100
AcDbArc
 50
0.0000000000922785
 51
89.99999999999991
  0
POLYLINE
  5
130
330
1F
100
AcDbEntity
  8
4
  6
PHANTOM
 62
     2
370
    25
100
AcDb2dPolyline
 66
     1
 10
0.0
 20
0.0
 30
0.0
  0
VERTEX
  5
131
330
130
100
AcDbEntity
  8
4
  6
PHANTOM
 62
     2
370
    25
100
AcDbVertex
100
AcDb2dVertex
 10
283.5211907164836
 20
147.4059692490782
 30
0.0
  0
VERTEX
  5
132
330
130
100
AcDbEntity
  8
4
  6
PHANTOM
 62
     2
370
    25
100
AcDbVertex
100
AcDb2dVertex
 10
260.427139545487
 20
147.4059692490782
 30
0.0
  0
VERTEX
  5
133
330
130
100
AcDbEntity
  8
4
  6
PHANTOM
 62
     2
370
    25
100
AcDbVertex
100
AcDb2dVertex
 10
258.5211907164835
 20
147.4059692490782
 30
0.0
  0
SEQEND
  5
134
330
130
100
AcDbEntity
  8
4
  6
PHANTOM
 62
     2
370
    25
  0
ARC
  5
135
330
1F
100
AcDbEntity
  8
4
  6
PHANTOM
 62
     2
370
    25
100
AcDbCircle
 10
258.5211907164922
 20
145.9059692490719
 30
0.0
 40
1.500000000006253
100
AcDbArc
 50
89.99999999999991
 51
179.9999999997612
  0
POLYLINE
  5
136
330
1F
100
AcDbEntity
  8
4
  6
PHANTOM
 62
     2
370
    25
100
AcDb2dPolyline
 66
     1
 10
0.0
 20
0.0
 30
0.0
  0
VERTEX
  5
137
330
136
100
AcDbEntity
  8
4
  6
PHANTOM
 62
     2
370
    25
100
AcDbVertex
100
AcDb2dVertex
 10
257.0211907164835
 20
145.9059692490782
 30
0.0
  0
VERTEX
  5
138
330
136
100
AcDbEntity
  8
4
  6
PHANTOM
 62
     2
370
    25
100
AcDbVertex
100
AcDb2dVertex
 10
257.0211907164835
 20
134.8599532228603
 30
0.0
  0
SEQEND
  5
139
330
136
100
AcDbEntity
  8
4
  6
PHANTOM
 62
     2
370
    25
  0
ARC
  5
13A
330
1F
100
AcDbEntity
  8
4
  6
PHANTOM
 62
     2
370
    25
100
AcDbCircle
 10
252.0211907164832
 20
134.8599532228599
 30
0.0
 40
5.000000000000369
100
AcDbArc
 50
269.9999999999993
 51
0.000000000004234
  0
ARC
  5
13B
330
1F
100
AcDbEntity
  8
4
  6
PHANTOM
 62
     2
370
    25
100
AcDbCircle
 10
252.021190716483
 20
127.8599532228615
 30
0.0
 40
1.999999999998792
100
AcDbArc
 50
89.99999999999991
 51
180.0000000000339
  0
POLYLINE
  5
13C
330
1F
100
AcDbEntity
  8
4
  6
PHANTOM
 62
     2
370
    25
100
AcDb2dPolyline
 66
     1
 10
0.0
 20
0.0
 30
0.0
  0
VERTEX
  5
13D
330
13C
100
AcDbEntity
  8
4
  6
PHANTOM
 62
     2
370
    25
100
AcDbVertex
100
AcDb2dVertex
 10
250.0211907164835
 20
127.8599532228603
 30
0.0
  0
VERTEX
  5
13E
330
13C
100
AcDbEntity
  8
4
  6
PHANTOM
 62
     2
370
    25
100
AcDbVertex
100
AcDb2dVertex
 10
250.0211907164836
 20
107.4059692490783
 30
0.0
  0
SEQEND
  5
13F
330
13C
100
AcDbEntity
  8
4
  6
PHANTOM
 62
     2
370
    25
  0
ARC
  5
140
330
1F
100
AcDbEntity
  8
4
  6
PHANTOM
 62
     2
370
    25
100
AcDbCircle
 10
252.0211907164833
 20
107.405969249079
 30
0.0
 40
1.999999999999716
100
AcDbArc
 50
180.0000000000179
 51
269.9999999999998
  0
POLYLINE
  5
141
330
1F
100
AcDbEntity
  8
4
  6
PHANTOM
 62
     2
370
    25
100
AcDb2dPolyline
 66
     1
 10
0.0
 20
0.0
 30
0.0
  0
VERTEX
  5
142
330
141
100
AcDbEntity
  8
4
  6
PHANTOM
 62
     2
370
    25
100
AcDbVertex
100
AcDb2dVertex
 10
252.0211907164835
 20
105.4059692490783
 30
0.0
  0
VERTEX
  5
143
330
141
100
AcDbEntity
  8
4
  6
PHANTOM
 62
     2
370
    25
100
AcDbVertex
100
AcDb2dVertex
 10
290.0211907164836
 20
105.4059692490783
 30
0.0
  0
SEQEND
  5
144
330
141
100
AcDbEntity
  8
4
  6
PHANTOM
 62
     2
370
    25
  0
ARC
  5
145
330
1F
100
AcDbEntity
  8
4
  6
PHANTOM
 62
     2
370
    25
100
AcDbCircle
 10
290.0211907164779
 20
107.4059692490803
 30
0.0
 40
2.000000000002046
100
AcDbArc
 50
269.9999999999998
 51
359.9999999999406
  0
POLYLINE
  5
146
330
1F
100
AcDbEntity
  8
4
  6
PHANTOM
 62
     2
370
    25
100
AcDb2dPolyline
 66
     1
 10
0.0
 20
0.0
 30
0.0
  0
VERTEX
  5
147
330
146
100
AcDbEntity
  8
4
  6
PHANTOM
 62
     2
370
    25
100
AcDbVertex
100
AcDb2dVertex
 10
292.0211907164836
 20
107.4059692490783
 30
0.0
  0
VERTEX
  5
148
330
146
100
AcDbEntity
  8
4
  6
PHANTOM
 62
     2
370
    25
100
AcDbVertex
100
AcDb2dVertex
 10
292.0211907164836
 20
127.8599532228603
 30
0.0
  0
SEQEND
  5
149
330
146
100
AcDbEntity
  8
4
  6
PHANTOM
 62
     2
370
    25
  0
ARC
  5
14A
330
1F
100
AcDbEntity
  8
4
  6
PHANTOM
 62
     2
370
    25
100
AcDbCircle
 10
290.0211907164812
 20
127.8599532228589
 30
0.0
 40
2.000000000002387
100
AcDbArc
 50
0.0000000000378613
 51
89.99999999999991
  0
ARC
  5
14B
330
1F
100
AcDbEntity
  8
4
  6
PHANTOM
 62
     2
370
    25
100
AcDbCircle
 10
290.0211907164841
 20
134.8599532228606
 30
0.0
 40
5.000000000000284
100
AcDbArc
 50
180.0000000000026
 51
269.9999999999998
  0
POLYLINE
  5
14C
330
1F
100
AcDbEntity
  8
4
  6
PHANTOM
 62
     2
370
    25
100
AcDb2dPolyline
 66
     1
 10
0.0
 20
0.0
 30
0.0
  0
VERTEX
  5
14D
330
14C
100
AcDbEntity
  8
4
  6
PHANTOM
 62
     2
370
    25
100
AcDbVertex
100
AcDb2dVertex
 10
285.0211907164836
 20
134.8599532228603
 30
0.0
  0
VERTEX
  5
14E
330
14C
100
AcDbEntity
  8
4
  6
PHANTOM
 62
     2
370
    25
100
AcDbVertex
100
AcDb2dVertex
 10
285.0211907164836
 20
145.9059692490782
 30
0.0
  0
SEQEND
  5
14F
330
14C
100
AcDbEntity
  8
4
  6
PHANTOM
 62
     2
370
    25
  0
MTEXT
  5
150
330
1F
100
AcDbEntity
  8
6
  6
Continuous
 62
     3
370
     9
100
AcDbMText
 10
332.064902723966
 20
2.86669605719112
 30
0.0
 40
3.300000000000001
 41
19.14566480112
 71
     7
 72
     1
  1
{\fＭＳ Ｐゴシック;\W0.714286;尺度　1/1}
 73
     1
 44
1.0
1001
ACAD
1000
ACAD_MTEXT_DEFINED_HEIGHT_BEGIN
1070
    46
1040
3.300000000000001
1000
ACAD_MTEXT_DEFINED_HEIGHT_END
  0
POLYLINE
  5
151
330
1F
100
AcDbEntity
  8
4
  6
PHANTOM
 62
     2
370
    25
100
AcDb2dPolyline
 66
     1
 10
0.0
 20
0.0
 30
0.0
  0
VERTEX
  5
152
330
151
100
AcDbEntity
  8
4
  6
PHANTOM
 62
     2
370
    25
100
AcDbVertex
100
AcDb2dVertex
 10
254.0211907164835
 20
105.4059692490783
 30
0.0
  0
VERTEX
  5
153
330
151
100
AcDbEntity
  8
4
  6
PHANTOM
 62
     2
370
    25
100
AcDbVertex
100
AcDb2dVertex
 10
254.0211907164835
 20
84.56825159793242
 30
0.0
  0
SEQEND
  5
154
330
151
100
AcDbEntity
  8
4
  6
PHANTOM
 62
     2
370
    25
  0
ARC
  5
155
330
1F
100
AcDbEntity
  8
4
  6
PHANTOM
 62
     2
370
    25
100
AcDbCircle
 10
262.5211907164832
 20
79.84325159793264
 30
0.0
 40
9.724999999999644
100
AcDbArc
 50
29.06891016107805
 51
150.9310898389201
  0
ARC
  5
156
330
1F
100
AcDbEntity
  8
4
  6
PHANTOM
 62
     2
370
    25
100
AcDbCircle
 10
279.5211907164835
 20
89.29325159793244
 30
0.0
 40
9.72499999999996
100
AcDbArc
 50
209.0689101610797
 51
330.9310898389207
  0
POLYLINE
  5
157
330
1F
100
AcDbEntity
  8
4
  6
PHANTOM
 62
     2
370
    25
100
AcDb2dPolyline
 66
     1
 10
0.0
 20
0.0
 30
0.0
  0
VERTEX
  5
158
330
157
100
AcDbEntity
  8
4
  6
PHANTOM
 62
     2
370
    25
100
AcDbVertex
100
AcDb2dVertex
 10
288.0211907164836
 20
84.56825159793271
 30
0.0
  0
VERTEX
  5
159
330
157
100
AcDbEntity
  8
4
  6
PHANTOM
 62
     2
370
    25
100
AcDbVertex
100
AcDb2dVertex
 10
288.0211907164836
 20
105.4059692490783
 30
0.0
  0
SEQEND
  5
15A
330
157
100
AcDbEntity
  8
4
  6
PHANTOM
 62
     2
370
    25
  0
ARC
  5
15B
330
1F
100
AcDbEntity
  8
4
  6
PHANTOM
 62
     2
370
    25
100
AcDbCircle
 10
262.5211907164834
 20
89.29325159793241
 30
0.0
 40
9.724999999999973
100
AcDbArc
 50
209.0689101610796
 51
330.9310898389182
  0
LINE
  5
15C
330
1F
100
AcDbEntity
  8
9
  6
Continuous
 62
     7
370
    35
100
AcDbLine
 10
108.5821261121863
 20
203.1870700582501
 30
0.0
 11
102.1430607838889
 21
203.9776878672103
 31
0.0
  0
LINE
  5
15D
330
1F
100
AcDbEntity
  8
9
  6
Continuous
 62
     7
370
    35
100
AcDbLine
 10
71.46025676878125
 20
203.1870700582501
 30
0.0
 11
77.89932209707862
 21
203.9776878672103
 31
0.0
  0
LINE
  5
15E
330
1F
100
AcDbEntity
  8
9
  6
Continuous
 62
     7
370
    35
100
AcDbLine
 10
96.34515466626326
 20
201.274355277942
 30
0.0
 11
93.20875872279552
 21
201.274355277942
 31
0.0
  0
LINE
  5
15F
330
1F
100
AcDbEntity
  8
9
  6
Continuous
 62
     7
370
    35
100
AcDbLine
 10
79.74313721257144
 20
138.1840234769904
 30
0.0
 11
100.2992456683961
 21
138.1840234769904
 31
0.0
  0
LINE
  5
160
330
1F
100
AcDbEntity
  8
9
  6
Continuous
 62
     7
370
    35
100
AcDbLine
 10
91.33049934815116
 20
159.4701834360605
 30
0.0
 11
96.87063851444177
 21
159.4701834360605
 31
0.0
  0
ARC
  5
161
330
1F
100
AcDbEntity
  8
9
  6
Continuous
 62
     7
370
    35
100
AcDbCircle
 10
94.67063851444217
 20
161.83514171557
 30
0.0
 40
1.799999999999997
100
AcDbArc
 50
269.9999999999998
 51
0.0
  0
ARC
  5
162
330
1F
100
AcDbEntity
  8
9
  6
Continuous
 62
     7
370
    35
100
AcDbCircle
 10
96.02063851444208
 20
164.1851417155699
 30
0.0
 40
0.4500000000000028
100
AcDbArc
 50
0.0
 51
179.9999999999998
  0
LINE
  5
163
330
1F
100
AcDbEntity
  8
9
  6
Continuous
 62
     7
370
    35
100
AcDbLine
 10
91.27119759410525
 20
158.57018343606
 30
0.0
 11
96.87063851444199
 21
158.5701834360602
 31
0.0
  0
ARC
  5
164
330
1F
100
AcDbEntity
  8
9
  6
Continuous
 62
     7
370
    35
100
AcDbCircle
 10
95.31328924794488
 20
201.185141715569
 30
0.0
 40
1.0
100
AcDbArc
 50
20.03172652528637
 51
89.99999999999991
  0
ARC
  5
165
330
1F
100
AcDbEntity
  8
9
  6
Continuous
 62
     7
370
    35
100
AcDbCircle
 10
95.18764239649826
 20
201.885141715569
 30
0.0
 40
1.299999999999997
100
AcDbArc
 50
12.32083218587529
 51
89.99999999999991
  0
ARC
  5
166
330
1F
100
AcDbEntity
  8
9
  6
Continuous
 62
     7
370
    35
100
AcDbCircle
 10
95.52119144048365
 20
185.8146910472817
 30
0.0
 40
1.0
100
AcDbArc
 50
0.0
 51
84.94675184874909
  0
ARC
  5
167
330
1F
100
AcDbEntity
  8
9
  6
Continuous
 62
     7
370
    35
100
AcDbCircle
 10
84.02119144048388
 20
177.5381439362909
 30
0.0
 40
13.5
100
AcDbArc
 50
0.0
 51
42.2054464037306
  0
ARC
  5
168
330
1F
100
AcDbEntity
  8
9
  6
Continuous
 62
     7
370
    35
100
AcDbCircle
 10
84.02119144048388
 20
172.5381439362907
 30
0.0
 40
13.5
100
AcDbArc
 50
318.1725878762926
 51
0.0
  0
LINE
  5
169
330
1F
100
AcDbEntity
  8
9
  6
Continuous
 62
     7
370
    35
100
AcDbLine
 10
97.4662579006459
 20
158.2351417155648
 30
0.0
 11
91.27119144048365
 21
158.2351417155673
 31
0.0
  0
LINE
  5
16A
330
1F
100
AcDbEntity
  8
9
  6
Continuous
 62
     7
370
    35
100
AcDbLine
 10
100.7657540870219
 20
152.4059692490782
 30
0.0
 11
94.58212933986178
 21
152.4059692490782
 31
0.0
  0
LINE
  5
16B
330
1F
100
AcDbEntity
  8
9
  6
Continuous
 62
     7
370
    35
100
AcDbLine
 10
98.35224245114031
 20
156.435141715569
 30
0.0
 11
91.52119144048365
 21
156.435141715569
 31
0.0
  0
LINE
  5
16C
330
1F
100
AcDbEntity
  8
9
  6
Continuous
 62
     7
370
    35
100
AcDbLine
 10
79.35767708615785
 20
150.5181311309695
 30
0.0
 11
100.6847057948094
 21
150.5181311309695
 31
0.0
  0
LINE
  5
16D
330
1F
100
AcDbEntity
  8
9
  6
Continuous
 62
     7
370
    35
100
AcDbLine
 10
81.52119144048365
 20
136.4059692490782
 30
0.0
 11
98.52119144048365
 21
136.4059692490782
 31
0.0
  0
LINE
  5
16E
330
1F
100
AcDbEntity
  8
9
  6
Continuous
 62
     7
370
    35
100
AcDbLine
 10
104.9286163985895
 20
189.5180624540571
 30
0.0
 11
95.25761060854674
 21
200.9544176070162
 31
0.0
  0
ARC
  5
16F
330
1F
100
AcDbEntity
  8
9
  6
Continuous
 62
     7
370
    35
100
AcDbCircle
 10
82.02119144048365
 20
170.1466948774314
 30
0.0
 40
24.0
100
AcDbArc
 50
0.0
 51
57.90299399630456
  0
LINE
  5
170
330
1F
100
AcDbEntity
  8
9
  6
Continuous
 62
     7
370
    35
100
AcDbLine
 10
80.52119144048365
 20
150.9059692490782
 30
0.0
 11
99.52119144048365
 21
150.9059692490782
 31
0.0
  0
LINE
  5
171
330
1F
100
AcDbEntity
  8
9
  6
Continuous
 62
     7
370
    35
100
AcDbLine
 10
94.89825446938048
 20
160.049591106638
 30
0.0
 11
97.55445716178392
 21
160.049591106638
 31
0.0
  0
ARC
  5
172
330
1F
100
AcDbEntity
  8
9
  6
Continuous
 62
     7
370
    35
100
AcDbCircle
 10
85.02119144048365
 20
168.4059692490782
 30
0.0
 40
17.0
100
AcDbArc
 50
179.9999999999998
 51
250.250077204358
  0
LINE
  5
173
330
1F
100
AcDbEntity
  8
9
  6
Continuous
 62
     7
370
    35
100
AcDbLine
 10
84.47063851444099
 20
164.1851417155699
 30
0.0
 11
84.47063851444122
 21
160.3701834360602
 31
0.0
  0
LINE
  5
174
330
1F
100
AcDbEntity
  8
9
  6
Continuous
 62
     7
370
    35
100
AcDbLine
 10
83.57063851444227
 20
164.1851417155699
 30
0.0
 11
83.57063851444227
 21
160.3701834360604
 31
0.0
  0
ARC
  5
175
330
1F
100
AcDbEntity
  8
9
  6
Continuous
 62
     7
370
    35
100
AcDbCircle
 10
94.67063851444217
 20
161.83514171557
 30
0.0
 40
0.9000000000000057
100
AcDbArc
 50
269.9999999999998
 51
0.0
  0
ARC
  5
176
330
1F
100
AcDbEntity
  8
9
  6
Continuous
 62
     7
370
    35
100
AcDbCircle
 10
81.77119144048365
 20
158.5609016978571
 30
0.0
 40
7.0
100
AcDbArc
 50
0.0
 51
22.45974820374019
  0
ARC
  5
177
330
1F
100
AcDbEntity
  8
9
  6
Continuous
 62
     7
370
    35
100
AcDbCircle
 10
98.27119144048365
 20
158.5609016978571
 30
0.0
 40
7.0
100
AcDbArc
 50
157.5402517962598
 51
179.9999999999998
  0
ARC
  5
178
330
1F
100
AcDbEntity
  8
9
  6
Continuous
 62
     7
370
    35
100
AcDbCircle
 10
82.75433969605419
 20
168.9822733028065
 30
0.0
 40
10.74860911180585
100
AcDbArc
 50
183.0734796207524
 51
269.0499776435816
  0
ARC
  5
179
330
1F
100
AcDbEntity
  8
9
  6
Continuous
 62
     7
370
    35
100
AcDbCircle
 10
85.02119144048365
 20
168.4059692490782
 30
0.0
 40
15.0
100
AcDbArc
 50
179.9999999999998
 51
233.3170111996313
  0
ARC
  5
17A
330
1F
100
AcDbEntity
  8
9
  6
Continuous
 62
     7
370
    35
100
AcDbCircle
 10
84.96049648815969
 20
169.5599211865067
 30
0.0
 40
11.0
100
AcDbArc
 50
186.021677192627
 51
245.4807912689772
  0
LINE
  5
17B
330
1F
100
AcDbEntity
  8
9
  6
Continuous
 62
     7
370
    35
100
AcDbLine
 10
79.2766287939456
 20
152.4059692490782
 30
0.0
 11
85.46025354110597
 21
152.4059692490782
 31
0.0
  0
LINE
  5
17C
330
1F
100
AcDbEntity
  8
9
  6
Continuous
 62
     7
370
    35
100
AcDbLine
 10
81.52119144048365
 20
136.4059692490782
 30
0.0
 11
79.74313721257144
 21
138.1840234769904
 31
0.0
  0
ARC
  5
17D
330
1F
100
AcDbEntity
  8
9
  6
Continuous
 62
     7
370
    35
100
AcDbCircle
 10
76.13344290881523
 20
149.2628519207019
 30
0.0
 40
6.498907295833106
100
AcDbArc
 50
39.10096087449865
 51
75.3209199477989
  0
LINE
  5
17E
330
1F
100
AcDbEntity
  8
9
  6
Continuous
 62
     7
370
    35
100
AcDbLine
 10
80.72751394078168
 20
159.4797348331205
 30
0.0
 11
81.7206385144419
 21
159.4797348331203
 31
0.0
  0
LINE
  5
17F
330
1F
100
AcDbEntity
  8
8
  6
Continuous
 62
     4
370
    25
100
AcDbLine
 10
80.94262301720946
 20
136.9845376723526
 30
0.0
 11
80.50769711222355
 21
150.9014711396582
 31
0.0
  0
LINE
  5
180
330
1F
100
AcDbEntity
  8
9
  6
Continuous
 62
     7
370
    35
100
AcDbLine
 10
79.35767708615785
 20
150.5181311309695
 30
0.0
 11
79.74313721257144
 21
138.1840234769904
 31
0.0
  0
ARC
  5
181
330
1F
100
AcDbEntity
  8
9
  6
Continuous
 62
     7
370
    35
100
AcDbCircle
 10
79.04732071755902
 20
160.3864388023637
 30
0.0
 40
5.0
100
AcDbArc
 50
233.3170111996313
 51
255.3209199477982
  0
LINE
  5
182
330
1F
100
AcDbEntity
  8
9
  6
Continuous
 62
     7
370
    35
100
AcDbLine
 10
79.35767708615785
 20
150.5181311309695
 30
0.0
 11
80.52119144048365
 21
150.9059692490782
 31
0.0
  0
LINE
  5
183
330
1F
100
AcDbEntity
  8
9
  6
Continuous
 62
     7
370
    35
100
AcDbLine
 10
80.52119144048365
 20
152.4059692490782
 30
0.0
 11
80.52119144048365
 21
150.9059692490782
 31
0.0
  0
ARC
  5
184
330
1F
100
AcDbEntity
  8
9
  6
Continuous
 62
     7
370
    35
100
AcDbCircle
 10
80.72751394078168
 20
160.2797348331205
 30
0.0
 40
0.7999999999999972
100
AcDbArc
 50
245.480791268976
 51
269.9999999999864
  0
LINE
  5
185
330
1F
100
AcDbEntity
  8
9
  6
Continuous
 62
     7
370
    35
100
AcDbLine
 10
85.37063851444177
 20
159.4701834360603
 30
0.0
 11
88.71188353281659
 21
159.4701834360605
 31
0.0
  0
LINE
  5
186
330
1F
100
AcDbEntity
  8
9
  6
Continuous
 62
     7
370
    35
100
AcDbLine
 10
88.61418905630771
 20
160.0351417155705
 30
0.0
 11
88.52119144048365
 21
160.0351417155705
 31
0.0
  0
LINE
  5
187
330
1F
100
AcDbEntity
  8
9
  6
Continuous
 62
     7
370
    35
100
AcDbLine
 10
85.37063851444199
 20
158.57018343606
 30
0.0
 11
88.77118528686205
 21
158.57018343606
 31
0.0
  0
LINE
  5
188
330
1F
100
AcDbEntity
  8
9
  6
Continuous
 62
     7
370
    35
100
AcDbLine
 10
87.32119144048383
 20
155.1351417155688
 30
0.0
 11
88.67119144048374
 21
155.1351417155688
 31
0.0
  0
LINE
  5
189
330
1F
100
AcDbEntity
  8
9
  6
Continuous
 62
     7
370
    35
100
AcDbLine
 10
92.72119144048392
 20
153.1351417155688
 30
0.0
 11
87.32119144048383
 21
153.1351417155688
 31
0.0
  0
LINE
  5
18A
330
1F
100
AcDbEntity
  8
9
  6
Continuous
 62
     7
370
    35
100
AcDbLine
 10
82.57612498032185
 20
158.2351417155648
 30
0.0
 11
88.77119144048365
 21
158.2351417155673
 31
0.0
  0
ARC
  5
18B
330
1F
100
AcDbEntity
  8
9
  6
Continuous
 62
     7
370
    35
100
AcDbCircle
 10
85.37063851444177
 20
160.3701834360604
 30
0.0
 40
0.9000000000000057
100
AcDbArc
 50
179.9999999999998
 51
269.9999999999998
  0
ARC
  5
18C
330
1F
100
AcDbEntity
  8
9
  6
Continuous
 62
     7
370
    35
100
AcDbCircle
 10
85.37063851444177
 20
160.3701834360604
 30
0.0
 40
1.799999999999997
100
AcDbArc
 50
179.9999999999998
 51
269.9999999999998
  0
LINE
  5
18D
330
1F
100
AcDbEntity
  8
9
  6
Continuous
 62
     7
370
    35
100
AcDbLine
 10
81.69014042982721
 20
156.435141715569
 30
0.0
 11
88.52119144048365
 21
156.435141715569
 31
0.0
  0
LINE
  5
18E
330
1F
100
AcDbEntity
  8
9
  6
Continuous
 62
     7
370
    35
100
AcDbLine
 10
82.52119144048365
 20
158.2351417155648
 30
0.0
 11
88.52119144048365
 21
158.2351417155648
 31
0.0
  0
LINE
  5
18F
330
1F
100
AcDbEntity
  8
9
  6
Continuous
 62
     7
370
    35
100
AcDbLine
 10
84.52967444962368
 20
160.0495911066377
 30
0.0
 11
88.52119144048365
 21
160.0495911066377
 31
0.0
  0
LINE
  5
190
330
1F
100
AcDbEntity
  8
9
  6
Continuous
 62
     7
370
    35
100
AcDbLine
 10
81.69014042982721
 20
152.4059692490782
 30
0.0
 11
81.69014042982721
 21
156.435141715569
 31
0.0
  0
LINE
  5
191
330
1F
100
AcDbEntity
  8
9
  6
Continuous
 62
     7
370
    35
100
AcDbLine
 10
82.4868198670998
 20
160.0495911066377
 30
0.0
 11
83.59941843824694
 21
160.0495911066377
 31
0.0
  0
LINE
  5
192
330
1F
100
AcDbEntity
  8
9
  6
Continuous
 62
     7
370
    35
100
AcDbLine
 10
83.57063851444227
 20
160.675334094434
 30
0.0
 11
82.4868198670998
 21
160.0495911066377
 31
0.0
  0
ELLIPSE
  5
193
330
1F
100
AcDbEntity
  8
9
  6
Continuous
 62
     7
370
    35
100
AcDbEllipse
 10
81.82063851444181
 20
159.9521984663763
 30
0.0
 11
-0.4500000000000455
 21
1.453990116989475E-15
 31
0.0
210
0.0
220
0.0
230
1.0
 40
0.992546151641162
 41
-0.0000000000000062
 42
3.141592653589787
  0
ELLIPSE
  5
194
330
1F
100
AcDbEntity
  8
9
  6
Continuous
 62
     7
370
    35
100
AcDbEllipse
 10
81.82063851444181
 20
159.9521984663763
 30
0.0
 11
-0.4500000000000455
 21
1.453990116989475E-15
 31
0.0
210
0.0
220
0.0
230
1.0
 40
0.992546151641162
 41
-3.141592653589787
 42
0.0000000000000062
  0
LINE
  5
195
330
1F
100
AcDbEntity
  8
9
  6
Continuous
 62
     7
370
    35
100
AcDbLine
 10
82.27063851444163
 20
159.9894677081697
 30
0.0
 11
82.27063851444163
 21
159.6987873311891
 31
0.0
  0
LINE
  5
196
330
1F
100
AcDbEntity
  8
9
  6
Continuous
 62
     7
370
    35
100
AcDbLine
 10
81.37063851444154
 20
159.9894677081697
 30
0.0
 11
81.37063851444154
 21
159.4797348331203
 31
0.0
  0
ARC
  5
197
330
1F
100
AcDbEntity
  8
9
  6
Continuous
 62
     7
370
    35
100
AcDbCircle
 10
81.82063851444181
 20
159.9894677081697
 30
0.0
 40
0.4500000000000028
100
AcDbArc
 50
0.0
 51
179.9999999999998
  0
LINE
  5
198
330
1F
100
AcDbEntity
  8
9
  6
Continuous
 62
     7
370
    35
100
AcDbLine
 10
82.57612498032185
 20
156.4059692490782
 30
0.0
 11
82.57612498032185
 21
158.2351417155648
 31
0.0
  0
ARC
  5
199
330
1F
100
AcDbEntity
  8
9
  6
Continuous
 62
     7
370
    35
100
AcDbCircle
 10
81.7206385144419
 20
160.2797348331203
 30
0.0
 40
0.7999999999999972
100
AcDbArc
 50
269.9999999999998
 51
343.2809085822778
  0
LINE
  5
19A
330
1F
100
AcDbEntity
  8
9
  6
Continuous
 62
     7
370
    35
100
AcDbLine
 10
85.46025354110597
 20
152.4059692490782
 30
0.0
 11
85.46025354110574
 21
156.4059692490782
 31
0.0
  0
LINE
  5
19B
330
1F
100
AcDbEntity
  8
9
  6
Continuous
 62
     7
370
    35
100
AcDbLine
 10
85.46025354110597
 20
152.4059692490782
 30
0.0
 11
85.46025354110597
 21
150.9059692490782
 31
0.0
  0
ARC
  5
19C
330
1F
100
AcDbEntity
  8
9
  6
Continuous
 62
     7
370
    35
100
AcDbCircle
 10
87.32119144048383
 20
153.435141715569
 30
0.0
 40
0.2999999999999972
100
AcDbArc
 50
179.9999999999998
 51
269.9999999999998
  0
ARC
  5
19D
330
1F
100
AcDbEntity
  8
9
  6
Continuous
 62
     7
370
    35
100
AcDbCircle
 10
87.32119144048383
 20
154.8351417155688
 30
0.0
 40
0.2999999999999972
100
AcDbArc
 50
89.99999999999991
 51
179.9999999999998
  0
LINE
  5
19E
330
1F
100
AcDbEntity
  8
9
  6
Continuous
 62
     7
370
    35
100
AcDbLine
 10
87.02119144048365
 20
153.435141715569
 30
0.0
 11
87.02119144048365
 21
154.8351417155688
 31
0.0
  0
LINE
  5
19F
330
1F
100
AcDbEntity
  8
9
  6
Continuous
 62
     7
370
    35
100
AcDbLine
 10
88.52119144048365
 20
160.4149513196309
 30
0.0
 11
88.52119144048365
 21
160.03514171557
 31
0.0
  0
LINE
  5
1A0
330
1F
100
AcDbEntity
  8
9
  6
Continuous
 62
     7
370
    35
100
AcDbLine
 10
88.52119144048365
 20
156.435141715569
 30
0.0
 11
88.52119144048365
 21
158.2059692490784
 31
0.0
  0
LINE
  5
1A1
330
1F
100
AcDbEntity
  8
9
  6
Continuous
 62
     7
370
    35
100
AcDbLine
 10
94.67063851444217
 20
160.0351417155705
 30
0.0
 11
91.42819382465981
 21
160.0351417155705
 31
0.0
  0
LINE
  5
1A2
330
1F
100
AcDbEntity
  8
9
  6
Continuous
 62
     7
370
    35
100
AcDbLine
 10
92.72119144048392
 20
155.1351417155688
 30
0.0
 11
91.37119144048356
 21
155.1351417155688
 31
0.0
  0
LINE
  5
1A3
330
1F
100
AcDbEntity
  8
9
  6
Continuous
 62
     7
370
    35
100
AcDbLine
 10
88.77119144048365
 20
155.2351417155689
 30
0.0
 11
88.77119144048365
 21
158.5609016978571
 31
0.0
  0
LINE
  5
1A4
330
1F
100
AcDbEntity
  8
9
  6
Continuous
 62
     7
370
    35
100
AcDbLine
 10
91.27119144048365
 20
155.2351417155689
 30
0.0
 11
91.27119144048365
 21
158.5609016978571
 31
0.0
  0
ARC
  5
1A5
330
1F
100
AcDbEntity
  8
9
  6
Continuous
 62
     7
370
    35
100
AcDbCircle
 10
88.67119144048374
 20
155.2351417155689
 30
0.0
 40
0.0999999999999943
100
AcDbArc
 50
269.9999999999998
 51
0.0
  0
ARC
  5
1A6
330
1F
100
AcDbEntity
  8
9
  6
Continuous
 62
     7
370
    35
100
AcDbCircle
 10
91.37119144048356
 20
155.2351417155689
 30
0.0
 40
0.0999999999999943
100
AcDbArc
 50
179.9999999999998
 51
269.9999999999998
  0
LINE
  5
1A7
330
1F
100
AcDbEntity
  8
9
  6
Continuous
 62
     7
370
    35
100
AcDbLine
 10
91.52119144048365
 20
156.435141715569
 30
0.0
 11
91.52119144048365
 21
158.2059692490784
 31
0.0
  0
LINE
  5
1A8
330
1F
100
AcDbEntity
  8
9
  6
Continuous
 62
     7
370
    35
100
AcDbLine
 10
94.58212933986178
 20
152.4059692490782
 30
0.0
 11
94.58212933986178
 21
156.4059692490782
 31
0.0
  0
ARC
  5
1A9
330
1F
100
AcDbEntity
  8
9
  6
Continuous
 62
     7
370
    35
100
AcDbCircle
 10
92.72119144048392
 20
153.435141715569
 30
0.0
 40
0.2999999999999972
100
AcDbArc
 50
269.9999999999998
 51
0.0
  0
ARC
  5
1AA
330
1F
100
AcDbEntity
  8
9
  6
Continuous
 62
     7
370
    35
100
AcDbCircle
 10
92.72119144048392
 20
154.8351417155688
 30
0.0
 40
0.2999999999999972
100
AcDbArc
 50
0.0
 51
89.99999999999991
  0
LINE
  5
1AB
330
1F
100
AcDbEntity
  8
9
  6
Continuous
 62
     7
370
    35
100
AcDbLine
 10
93.02119144048365
 20
153.435141715569
 30
0.0
 11
93.02119144048365
 21
154.8351417155688
 31
0.0
  0
LINE
  5
1AC
330
1F
100
AcDbEntity
  8
9
  6
Continuous
 62
     7
370
    35
100
AcDbLine
 10
94.58212933986178
 20
152.4059692490782
 30
0.0
 11
94.58212933986178
 21
150.9059692490782
 31
0.0
  0
LINE
  5
1AD
330
1F
100
AcDbEntity
  8
9
  6
Continuous
 62
     7
370
    35
100
AcDbLine
 10
80.14619144048365
 20
201.274355277942
 30
0.0
 11
82.11685050678088
 21
201.274355277942
 31
0.0
  0
ARC
  5
1AE
330
1F
100
AcDbEntity
  8
9
  6
Continuous
 62
     7
370
    35
100
AcDbCircle
 10
80.66185914337493
 20
201.885141715569
 30
0.0
 40
1.299999999999997
100
AcDbArc
 50
11.75775714726676
 51
89.99999999999991
  0
LINE
  5
1AF
330
1F
100
AcDbEntity
  8
9
  6
Continuous
 62
     7
370
    35
100
AcDbLine
 10
80.37754436228201
 20
202.185141715569
 30
0.0
 11
81.92677020744222
 21
202.185141715569
 31
0.0
  0
LINE
  5
1B0
330
1F
100
AcDbEntity
  8
9
  6
Continuous
 62
     7
370
    35
100
AcDbLine
 10
83.2385145168283
 20
181.8801677346416
 30
0.0
 11
79.6083471832313
 21
182.1977662230333
 31
0.0
  0
ARC
  5
1B1
330
1F
100
AcDbEntity
  8
9
  6
Continuous
 62
     7
370
    35
100
AcDbCircle
 10
82.52119144048365
 20
177.7454470848149
 30
0.0
 40
4.0
100
AcDbArc
 50
179.9999999999998
 51
265.0000000000001
  0
LINE
  5
1B2
330
1F
100
AcDbEntity
  8
9
  6
Continuous
 62
     7
370
    35
100
AcDbLine
 10
81.02119144048365
 20
161.2351417155689
 30
0.0
 11
83.57063851444227
 21
161.2351417155689
 31
0.0
  0
LINE
  5
1B3
330
1F
100
AcDbEntity
  8
9
  6
Continuous
 62
     7
370
    35
100
AcDbLine
 10
81.02119144048365
 20
163.5351417155689
 30
0.0
 11
83.57063851444227
 21
163.5351417155689
 31
0.0
  0
LINE
  5
1B4
330
1F
100
AcDbEntity
  8
9
  6
Continuous
 62
     7
370
    35
100
AcDbLine
 10
75.11376648237783
 20
189.5180624540571
 30
0.0
 11
84.78477227242055
 21
200.9544176070162
 31
0.0
  0
ARC
  5
1B5
330
1F
100
AcDbEntity
  8
9
  6
Continuous
 62
     7
370
    35
100
AcDbCircle
 10
98.02119144048365
 20
170.1466948774314
 30
0.0
 40
24.0
100
AcDbArc
 50
122.0970060036955
 51
179.9999999999998
  0
ARC
  5
1B6
330
1F
100
AcDbEntity
  8
9
  6
Continuous
 62
     7
370
    35
100
AcDbCircle
 10
79.52119144048365
 20
181.2015715249415
 30
0.0
 40
1.0
100
AcDbArc
 50
85.00000000000054
 51
179.9999999999998
  0
ARC
  5
1B7
330
1F
100
AcDbEntity
  8
9
  6
Continuous
 62
     7
370
    35
100
AcDbCircle
 10
98.02119144048365
 20
170.1466948774314
 30
0.0
 40
30.0
100
AcDbArc
 50
139.7809012554454
 51
179.9999999999998
  0
ARC
  5
1B8
330
1F
100
AcDbEntity
  8
9
  6
Continuous
 62
     7
370
    35
100
AcDbCircle
 10
98.02119144048365
 20
170.1466948774314
 30
0.0
 40
26.0
100
AcDbArc
 50
156.1811586065422
 51
179.9999999999998
  0
ARC
  5
1B9
330
1F
100
AcDbEntity
  8
9
  6
Continuous
 62
     7
370
    35
100
AcDbCircle
 10
98.02119144048365
 20
170.1466948774314
 30
0.0
 40
28.0
100
AcDbArc
 50
157.9756871629579
 51
179.9999999999998
  0
LINE
  5
1BA
330
1F
100
AcDbEntity
  8
9
  6
Continuous
 62
     7
370
    35
100
AcDbLine
 10
68.02119144048365
 20
168.4059692490782
 30
0.0
 11
68.02119144048365
 21
170.1466948774314
 31
0.0
  0
LINE
  5
1BB
330
1F
100
AcDbEntity
  8
9
  6
Continuous
 62
     7
370
    35
100
AcDbLine
 10
70.02119144048365
 20
168.4059692490782
 30
0.0
 11
70.02119144048365
 21
170.1466948774314
 31
0.0
  0
LINE
  5
1BC
330
1F
100
AcDbEntity
  8
9
  6
Continuous
 62
     7
370
    35
100
AcDbLine
 10
72.02119144048365
 20
168.4059692490782
 30
0.0
 11
72.02119144048365
 21
170.1466948774314
 31
0.0
  0
LINE
  5
1BD
330
1F
100
AcDbEntity
  8
9
  6
Continuous
 62
     7
370
    35
100
AcDbLine
 10
74.02119144048365
 20
168.4059692490784
 30
0.0
 11
74.02119144048365
 21
170.1466948774314
 31
0.0
  0
LINE
  5
1BE
330
1F
100
AcDbEntity
  8
9
  6
Continuous
 62
     7
370
    35
100
AcDbLine
 10
81.02119144048365
 20
163.5351417155689
 30
0.0
 11
81.02119144048365
 21
161.2351417155689
 31
0.0
  0
LINE
  5
1BF
330
1F
100
AcDbEntity
  8
9
  6
Continuous
 62
     7
370
    35
100
AcDbLine
 10
78.52119144048365
 20
181.2015715249415
 30
0.0
 11
78.52119144048365
 21
177.7454470848149
 31
0.0
  0
LINE
  5
1C0
330
1F
100
AcDbEntity
  8
9
  6
Continuous
 62
     7
370
    35
100
AcDbLine
 10
73.60201869931424
 20
201.8221899779632
 30
0.0
 11
73.46662061644119
 21
200.3666175843716
 31
0.0
  0
ARC
  5
1C1
330
1F
100
AcDbEntity
  8
9
  6
Continuous
 62
     7
370
    35
100
AcDbCircle
 10
74.10895864561971
 20
201.885141715569
 30
0.0
 40
1.299999999999997
100
AcDbArc
 50
89.99999999999991
 51
174.8427865251811
  0
LINE
  5
1C2
330
1F
100
AcDbEntity
  8
9
  6
Continuous
 62
     7
370
    35
100
AcDbLine
 10
70.33163561123283
 20
201.4923653794035
 30
0.0
 11
71.71355161689539
 21
202.8219479004913
 31
0.0
  0
LINE
  5
1C3
330
1F
100
AcDbEntity
  8
9
  6
Continuous
 62
     7
370
    35
100
AcDbLine
 10
70.87646316139976
 20
200.9480549682737
 30
0.0
 11
72.14596501373862
 21
202.1694804864973
 31
0.0
  0
LINE
  5
1C4
330
1F
100
AcDbEntity
  8
9
  6
Continuous
 62
     7
370
    35
100
AcDbLine
 10
70.73615638743772
 20
200.9491522524108
 30
0.0
 11
69.98346968940595
 21
201.7018389504419
 31
0.0
  0
LINE
  5
1C5
330
1F
100
AcDbEntity
  8
9
  6
Continuous
 62
     7
370
    35
100
AcDbLine
 10
69.9035095176167
 20
201.7817991222314
 30
0.0
 11
71.16763804989031
 21
203.0443503730228
 31
0.0
  0
ARC
  5
1C6
330
1F
100
AcDbEntity
  8
9
  6
Continuous
 62
     7
370
    35
100
AcDbCircle
 10
70.2623026024572
 20
201.5644273936282
 30
0.0
 40
0.1000000000000014
100
AcDbArc
 50
225.0000000000457
 51
313.8942957105205
  0
LINE
  5
1C7
330
1F
100
AcDbEntity
  8
9
  6
Continuous
 62
     7
370
    35
100
AcDbLine
 10
70.73615638743749
 20
200.9491522524108
 30
0.0
 11
69.9035095176167
 21
201.7817991222314
 31
0.0
  0
ARC
  5
1C8
330
1F
100
AcDbEntity
  8
9
  6
Continuous
 62
     7
370
    35
100
AcDbCircle
 10
70.80686706555625
 20
201.0198629305293
 30
0.0
 40
0.1000000000000014
100
AcDbArc
 50
225.0000000000457
 51
314.1038427224073
  0
ARC
  5
1C9
330
1F
100
AcDbEntity
  8
9
  6
Continuous
 62
     7
370
    35
100
AcDbCircle
 10
71.52119144048365
 20
202.6907969824294
 30
0.0
 40
0.5
100
AcDbArc
 50
96.99999999999268
 51
135.0
  0
ARC
  5
1CA
330
1F
100
AcDbEntity
  8
9
  6
Continuous
 62
     7
370
    35
100
AcDbCircle
 10
72.61488073097743
 20
201.885141715569
 30
0.0
 40
1.299999999999997
100
AcDbArc
 50
89.99999999999991
 51
133.8942957104825
  0
ARC
  5
1CB
330
1F
100
AcDbEntity
  8
9
  6
Continuous
 62
     7
370
    35
100
AcDbCircle
 10
73.39015740882778
 20
202.1989339636334
 30
0.0
 40
1.24454096891742
100
AcDbArc
 50
127.5871082538051
 51
184.6273535933158
  0
ARC
  5
1CC
330
1F
100
AcDbEntity
  8
9
  6
Continuous
 62
     7
370
    35
100
AcDbCircle
 10
73.26748032277018
 20
200.3851417155688
 30
0.0
 40
0.2000000000000028
100
AcDbArc
 50
269.9999999999998
 51
354.6856104413413
  0
LINE
  5
1CD
330
1F
100
AcDbEntity
  8
9
  6
Continuous
 62
     7
370
    35
100
AcDbLine
 10
72.66667068321667
 20
200.3671639430397
 30
0.0
 11
72.81422130271616
 21
202.0019972370089
 31
0.0
  0
LINE
  5
1CE
330
1F
100
AcDbEntity
  8
9
  6
Continuous
 62
     7
370
    35
100
AcDbLine
 10
72.14967304973024
 20
202.0985308852555
 30
0.0
 11
72.26794767796
 21
200.3714770291428
 31
0.0
  0
ARC
  5
1CF
330
1F
100
AcDbEntity
  8
9
  6
Continuous
 62
     7
370
    35
100
AcDbCircle
 10
72.46748032277
 20
200.3851417155688
 30
0.0
 40
0.2000000000000028
100
AcDbArc
 50
183.9176963714283
 51
354.8427865251504
  0
ARC
  5
1D0
330
1F
100
AcDbEntity
  8
9
  6
Continuous
 62
     7
370
    35
100
AcDbCircle
 10
73.390157408828
 20
202.1989339636334
 30
0.0
 40
1.24454096891742
100
AcDbArc
 50
127.5871082537633
 51
184.6273535933158
  0
LINE
  5
1D1
330
1F
100
AcDbEntity
  8
9
  6
Continuous
 62
     7
370
    35
100
AcDbLine
 10
73.26748032277018
 20
200.185141715569
 30
0.0
 11
72.46748032277
 21
200.185141715569
 31
0.0
  0
LINE
  5
1D2
330
1F
100
AcDbEntity
  8
9
  6
Continuous
 62
     7
370
    35
100
AcDbLine
 10
76.78160970192161
 20
203.185141715569
 30
0.0
 11
77.64682276972425
 21
203.185141715569
 31
0.0
  0
LINE
  5
1D3
330
1F
100
AcDbEntity
  8
9
  6
Continuous
 62
     7
370
    35
100
AcDbLine
 10
76.71979523416971
 20
202.185141715569
 30
0.0
 11
77.75403048536586
 21
202.185141715569
 31
0.0
  0
LINE
  5
1D4
330
1F
100
AcDbEntity
  8
9
  6
Continuous
 62
     7
370
    35
100
AcDbLine
 10
76.39987172540859
 20
202.0927330359661
 30
0.0
 11
74.61230627375525
 21
200.9660703282854
 31
0.0
  0
LINE
  5
1D5
330
1F
100
AcDbEntity
  8
9
  6
Continuous
 62
     7
370
    35
100
AcDbLine
 10
74.01875287811103
 20
201.4709994090269
 30
0.0
 11
76.01278891200158
 21
202.93343298854
 31
0.0
  0
ARC
  5
1D6
330
1F
100
AcDbEntity
  8
9
  6
Continuous
 62
     7
370
    35
100
AcDbCircle
 10
74.45234451937458
 20
201.2198659884839
 30
0.0
 40
0.2999999999999972
100
AcDbArc
 50
225.0000000000073
 51
302.2223180644616
  0
ARC
  5
1D7
330
1F
100
AcDbEntity
  8
9
  6
Continuous
 62
     7
370
    35
100
AcDbCircle
 10
73.89899591483717
 20
201.6264464949106
 30
0.0
 40
0.1962282516922187
100
AcDbArc
 50
141.2935923720225
 51
307.6107783561815
  0
ARC
  5
1D8
330
1F
100
AcDbEntity
  8
9
  6
Continuous
 62
     7
370
    35
100
AcDbCircle
 10
75.77199893651286
 20
202.1887468887375
 30
0.0
 40
1.34688360716865
100
AcDbArc
 50
132.2874941588447
 51
138.8406207870827
  0
LINE
  5
1D9
330
1F
100
AcDbEntity
  8
9
  6
Continuous
 62
     7
370
    35
100
AcDbLine
 10
74.75795490518212
 20
203.0752062243994
 30
0.0
 11
73.74586714236474
 21
201.7491538940482
 31
0.0
  0
LINE
  5
1DA
330
1F
100
AcDbEntity
  8
9
  6
Continuous
 62
     7
370
    35
100
AcDbLine
 10
74.24021248501853
 20
201.0077339541278
 30
0.0
 11
73.75732359765365
 21
201.4906228414929
 31
0.0
  0
LINE
  5
1DB
330
1F
100
AcDbEntity
  8
9
  6
Continuous
 62
     7
370
    35
100
AcDbLine
 10
74.10895864561971
 20
203.185141715569
 30
0.0
 11
74.86574687426818
 21
203.185141715569
 31
0.0
  0
ARC
  5
1DC
330
1F
100
AcDbEntity
  8
9
  6
Continuous
 62
     7
370
    35
100
AcDbCircle
 10
74.00029928665649
 20
201.7851417155689
 30
0.0
 40
0.3999999999999986
100
AcDbArc
 50
89.99999999999991
 51
174.6856104413418
  0
LINE
  5
1DD
330
1F
100
AcDbEntity
  8
9
  6
Continuous
 62
     7
370
    35
100
AcDbLine
 10
74.00029928665649
 20
202.185141715569
 30
0.0
 11
74.0786277196049
 21
202.185141715569
 31
0.0
  0
ARC
  5
1DE
330
1F
100
AcDbEntity
  8
9
  6
Continuous
 62
     7
370
    35
100
AcDbCircle
 10
76.71979523416948
 20
201.5851417155688
 30
0.0
 40
0.6000000000000014
100
AcDbArc
 50
89.99999999999991
 51
122.2223180644504
  0
ARC
  5
1DF
330
1F
100
AcDbEntity
  8
9
  6
Continuous
 62
     7
370
    35
100
AcDbCircle
 10
76.78160970192138
 20
201.885141715569
 30
0.0
 40
1.299999999999997
100
AcDbArc
 50
89.99999999999991
 51
126.2564626852138
  0
ARC
  5
1E0
330
1F
100
AcDbEntity
  8
9
  6
Continuous
 62
     7
370
    35
100
AcDbCircle
 10
80.448065529844
 20
201.8851417155688
 30
0.0
 40
1.299999999999997
100
AcDbArc
 50
89.99999999999991
 51
168.7010440842395
  0
LINE
  5
1E1
330
1F
100
AcDbEntity
  8
9
  6
Continuous
 62
     7
370
    35
100
AcDbLine
 10
78.84697158094022
 20
200.5067704056664
 30
0.0
 11
79.17326183207487
 21
202.1398484727513
 31
0.0
  0
ARC
  5
1E2
330
1F
100
AcDbEntity
  8
9
  6
Continuous
 62
     7
370
    35
100
AcDbCircle
 10
78.8547242893188
 20
200.5851417155688
 30
0.0
 40
0.3999999999999986
100
AcDbArc
 50
269.9999999999998
 51
341.950033379417
  0
LINE
  5
1E3
330
1F
100
AcDbEntity
  8
9
  6
Continuous
 62
     7
370
    35
100
AcDbLine
 10
78.06134142836672
 20
200.5126853513948
 30
0.0
 11
77.7692478652485
 21
202.0985308852564
 31
0.0
  0
ARC
  5
1E4
330
1F
100
AcDbEntity
  8
9
  6
Continuous
 62
     7
370
    35
100
AcDbCircle
 10
78.4547242893187
 20
200.5851417155688
 30
0.0
 40
0.3999999999999986
100
AcDbArc
 50
190.4362216586843
 51
348.7010440842539
  0
LINE
  5
1E5
330
1F
100
AcDbEntity
  8
9
  6
Continuous
 62
     7
370
    35
100
AcDbLine
 10
78.8547242893188
 20
200.185141715569
 30
0.0
 11
78.4547242893187
 21
200.185141715569
 31
0.0
  0
ARC
  5
1E6
330
1F
100
AcDbEntity
  8
9
  6
Continuous
 62
     7
370
    35
100
AcDbCircle
 10
85.79000519300106
 20
203.5524069540749
 30
0.0
 40
8.151460220977583
100
AcDbArc
 50
182.582343949889
 51
190.2741177283853
  0
ARC
  5
1E7
330
1F
100
AcDbEntity
  8
9
  6
Continuous
 62
     7
370
    35
100
AcDbCircle
 10
80.14619144048365
 20
202.274355277942
 30
0.0
 40
1.0
100
AcDbArc
 50
234.2211531735259
 51
269.9999999999998
  0
ARC
  5
1E8
330
1F
100
AcDbEntity
  8
9
  6
Continuous
 62
     7
370
    35
100
AcDbCircle
 10
80.37754436228201
 20
201.385141715569
 30
0.0
 40
0.7999999999999972
100
AcDbArc
 50
89.99999999999991
 51
161.9500333794174
  0
LINE
  5
1E9
330
1F
100
AcDbEntity
  8
9
  6
Continuous
 62
     7
370
    35
100
AcDbLine
 10
79.61691502907806
 20
201.6330187364281
 30
0.0
 11
79.23503895592066
 21
200.4612032051391
 31
0.0
  0
LINE
  5
1EA
330
1F
100
AcDbEntity
  8
9
  6
Continuous
 62
     7
370
    35
100
AcDbLine
 10
80.448065529844
 20
203.185141715569
 30
0.0
 11
80.66185914337493
 21
203.185141715569
 31
0.0
  0
LINE
  5
1EB
330
1F
100
AcDbEntity
  8
9
  6
Continuous
 62
     7
370
    35
100
AcDbLine
 10
87.39619144048388
 20
177.7881439362907
 30
0.0
 11
87.39619144048388
 21
182.2881439362909
 31
0.0
  0
LINE
  5
1EC
330
1F
100
AcDbEntity
  8
9
  6
Continuous
 62
     7
370
    35
100
AcDbLine
 10
92.64619144048388
 20
177.7881439362907
 30
0.0
 11
92.64619144048388
 21
182.2881439362909
 31
0.0
  0
ARC
  5
1ED
330
1F
100
AcDbEntity
  8
9
  6
Continuous
 62
     7
370
    35
100
AcDbCircle
 10
96.02119144048388
 20
177.5381439362909
 30
0.0
 40
13.5
100
AcDbArc
 50
137.7945535962694
 51
179.9999999999998
  0
LINE
  5
1EE
330
1F
100
AcDbEntity
  8
9
  6
Continuous
 62
     7
370
    35
100
AcDbLine
 10
87.52119144048365
 20
182.9915224008173
 30
0.0
 11
88.48055298516655
 21
169.5604607752564
 31
0.0
  0
LINE
  5
1EF
330
1F
100
AcDbEntity
  8
9
  6
Continuous
 62
     7
370
    35
100
AcDbLine
 10
91.56182989580074
 20
169.5604607752564
 30
0.0
 11
92.52119144048365
 21
182.9915224008173
 31
0.0
  0
LINE
  5
1F0
330
1F
100
AcDbEntity
  8
9
  6
Continuous
 62
     7
370
    35
100
AcDbLine
 10
88.27119144048365
 20
168.7772896350923
 30
0.0
 11
91.77119144048365
 21
168.7772896350923
 31
0.0
  0
LINE
  5
1F1
330
1F
100
AcDbEntity
  8
9
  6
Continuous
 62
     7
370
    35
100
AcDbLine
 10
88.27119144048365
 20
169.5604607752564
 30
0.0
 11
91.77119144048365
 21
169.5604607752564
 31
0.0
  0
LINE
  5
1F2
330
1F
100
AcDbEntity
  8
9
  6
Continuous
 62
     7
370
    35
100
AcDbLine
 10
91.77119144048365
 20
167.0480902736603
 30
0.0
 11
88.27119144048365
 21
167.0480902736603
 31
0.0
  0
LINE
  5
1F3
330
1F
100
AcDbEntity
  8
9
  6
Continuous
 62
     7
370
    35
100
AcDbLine
 10
84.47063851444122
 20
161.2351417155689
 30
0.0
 11
95.34145890769113
 21
161.2351417155689
 31
0.0
  0
LINE
  5
1F4
330
1F
100
AcDbEntity
  8
9
  6
Continuous
 62
     7
370
    35
100
AcDbLine
 10
84.47063851444099
 20
163.5351417155689
 30
0.0
 11
95.57063851444272
 21
163.5351417155689
 31
0.0
  0
ARC
  5
1F5
330
1F
100
AcDbEntity
  8
9
  6
Continuous
 62
     7
370
    35
100
AcDbCircle
 10
90.02119144048365
 20
154.5351417155689
 30
0.0
 40
9.400000000000006
100
AcDbArc
 50
73.22525573591797
 51
106.7747442640947
  0
LINE
  5
1F6
330
1F
100
AcDbEntity
  8
9
  6
Continuous
 62
     7
370
    35
100
AcDbLine
 10
87.02119144048365
 20
170.3650324949897
 30
0.0
 11
87.02119144048365
 21
173.3229888189944
 31
0.0
  0
ARC
  5
1F7
330
1F
100
AcDbEntity
  8
9
  6
Continuous
 62
     7
370
    35
100
AcDbCircle
 10
96.02119144048388
 20
172.5381439362907
 30
0.0
 40
10.5
100
AcDbArc
 50
179.9999999999998
 51
194.149004508939
  0
ARC
  5
1F8
330
1F
100
AcDbEntity
  8
9
  6
Continuous
 62
     7
370
    35
100
AcDbCircle
 10
96.02119144048388
 20
172.5381439362907
 30
0.0
 40
13.5
100
AcDbArc
 50
179.9999999999998
 51
221.8274121237066
  0
LINE
  5
1F9
330
1F
100
AcDbEntity
  8
9
  6
Continuous
 62
     7
370
    35
100
AcDbLine
 10
88.35624909689759
 20
160.935141715569
 30
0.0
 11
84.47063851444122
 21
160.935141715569
 31
0.0
  0
LINE
  5
1FA
330
1F
100
AcDbEntity
  8
9
  6
Continuous
 62
     7
370
    35
100
AcDbLine
 10
83.57063851444227
 20
160.935141715569
 30
0.0
 11
82.52119144048365
 21
160.935141715569
 31
0.0
  0
LINE
  5
1FB
330
1F
100
AcDbEntity
  8
9
  6
Continuous
 62
     7
370
    35
100
AcDbLine
 10
82.52119144048365
 20
161.2351417155689
 30
0.0
 11
82.52119144048365
 21
160.935141715569
 31
0.0
  0
ARC
  5
1FC
330
1F
100
AcDbEntity
  8
9
  6
Continuous
 62
     7
370
    35
100
AcDbCircle
 10
84.02063851444163
 20
164.1851417155699
 30
0.0
 40
0.4500000000000028
100
AcDbArc
 50
0.0
 51
179.9999999999998
  0
LINE
  5
1FD
330
1F
100
AcDbEntity
  8
9
  6
Continuous
 62
     7
370
    35
100
AcDbLine
 10
88.02119144048388
 20
168.6381439362908
 30
0.0
 11
88.02119144048388
 21
165.8248067296729
 31
0.0
  0
ARC
  5
1FE
330
1F
100
AcDbEntity
  8
9
  6
Continuous
 62
     7
370
    35
100
AcDbCircle
 10
87.29422174877536
 20
170.3381439362908
 30
0.0
 40
1.5
100
AcDbArc
 50
194.1490045089391
 51
269.9999999999998
  0
ARC
  5
1FF
330
1F
100
AcDbEntity
  8
9
  6
Continuous
 62
     7
370
    35
100
AcDbCircle
 10
90.02119144048365
 20
189.479424072472
 30
0.0
 40
19.34838405080195
100
AcDbArc
 50
261.0802048236682
 51
265.2980166010481
  0
ARC
  5
200
330
1F
100
AcDbEntity
  8
9
  6
Continuous
 62
     7
370
    35
100
AcDbCircle
 10
87.82119144048383
 20
168.6381439362908
 30
0.0
 40
0.2000000000000028
100
AcDbArc
 50
0.0
 51
89.99999999999991
  0
ARC
  5
201
330
1F
100
AcDbEntity
  8
9
  6
Continuous
 62
     7
370
    35
100
AcDbCircle
 10
88.59075509279616
 20
173.3764983003827
 30
0.0
 40
3.927849773742523
100
AcDbArc
 50
256.3408948196571
 51
261.4373877958259
  0
ARC
  5
202
330
1F
100
AcDbEntity
  8
9
  6
Continuous
 62
     7
370
    35
100
AcDbCircle
 10
89.44510132335989
 20
179.0506393676451
 30
0.0
 40
9.665949139582336
100
AcDbArc
 50
261.437387832967
 51
263.0243237025853
  0
LINE
  5
203
330
1F
100
AcDbEntity
  8
9
  6
Continuous
 62
     7
370
    35
100
AcDbLine
 10
87.17119144048374
 20
170.1856500065839
 30
0.0
 11
87.17119144048374
 21
170.3420923520536
 31
0.0
  0
LINE
  5
204
330
1F
100
AcDbEntity
  8
9
  6
Continuous
 62
     7
370
    35
100
AcDbLine
 10
87.29422174877536
 20
168.8381439362908
 30
0.0
 11
87.82119144048383
 21
168.8381439362908
 31
0.0
  0
LINE
  5
205
330
1F
100
AcDbEntity
  8
9
  6
Continuous
 62
     7
370
    35
100
AcDbLine
 10
86.75923543236476
 20
168.9367911465715
 30
0.0
 11
87.52119144048365
 21
169.3767066529697
 31
0.0
  0
ARC
  5
206
330
1F
100
AcDbEntity
  8
9
  6
Continuous
 62
     7
370
    35
100
AcDbCircle
 10
90.02119144048365
 20
165.0465796340474
 30
0.0
 40
5.0
100
AcDbArc
 50
116.3208098216033
 51
119.9999999999979
  0
ARC
  5
207
330
1F
100
AcDbEntity
  8
9
  6
Continuous
 62
     7
370
    35
100
AcDbCircle
 10
87.81532251079452
 20
170.1856500065839
 30
0.0
 40
0.6441310703106069
100
AcDbArc
 50
179.9999999999998
 51
256.3408948147002
  0
ARC
  5
208
330
1F
100
AcDbEntity
  8
9
  6
Continuous
 62
     7
370
    35
100
AcDbCircle
 10
88.32119144048383
 20
167.6206107188272
 30
0.0
 40
0.2999999999999972
100
AcDbArc
 50
179.9999999999998
 51
260.4059317731364
  0
LINE
  5
209
330
1F
100
AcDbEntity
  8
9
  6
Continuous
 62
     7
370
    35
100
AcDbLine
 10
88.27119144048365
 20
167.0480902736603
 30
0.0
 11
88.27119144048365
 21
169.5604607752564
 31
0.0
  0
LINE
  5
20A
330
1F
100
AcDbEntity
  8
9
  6
Continuous
 62
     7
370
    35
100
AcDbLine
 10
82.52119144048388
 20
177.5381439362909
 30
0.0
 11
82.52119144048388
 21
172.5381439362907
 31
0.0
  0
LINE
  5
20B
330
1F
100
AcDbEntity
  8
9
  6
Continuous
 62
     7
370
    35
100
AcDbLine
 10
82.52119144048365
 20
173.7301677346415
 30
0.0
 11
82.17256846949303
 21
173.7606682924479
 31
0.0
  0
ARC
  5
20C
330
1F
100
AcDbEntity
  8
9
  6
Continuous
 62
     7
370
    35
100
AcDbCircle
 10
87.02119144048388
 20
176.2881439362907
 30
0.0
 40
1.5
100
AcDbArc
 50
89.99999999999991
 51
179.9999999999998
  0
LINE
  5
20D
330
1F
100
AcDbEntity
  8
9
  6
Continuous
 62
     7
370
    35
100
AcDbLine
 10
87.27119144048365
 20
177.3988749573104
 30
0.0
 11
87.27119144048342
 21
174.9090399614083
 31
0.0
  0
LINE
  5
20E
330
1F
100
AcDbEntity
  8
9
  6
Continuous
 62
     7
370
    35
100
AcDbLine
 10
85.52119144048365
 20
173.5548560355621
 30
0.0
 11
88.21208709116499
 21
173.3189832912787
 31
0.0
  0
LINE
  5
20F
330
1F
100
AcDbEntity
  8
9
  6
Continuous
 62
     7
370
    35
100
AcDbLine
 10
85.52119144048365
 20
173.454472593304
 30
0.0
 11
88.21930251375474
 21
173.2179673750238
 31
0.0
  0
LINE
  5
210
330
1F
100
AcDbEntity
  8
9
  6
Continuous
 62
     7
370
    35
100
AcDbLine
 10
85.52119144048365
 20
173.905479433721
 30
0.0
 11
87.52119144048365
 21
174.0807911328004
 31
0.0
  0
LINE
  5
211
330
1F
100
AcDbEntity
  8
9
  6
Continuous
 62
     7
370
    35
100
AcDbLine
 10
85.52119144048388
 20
176.2881439362907
 30
0.0
 11
85.52119144048388
 21
172.5381439362907
 31
0.0
  0
LINE
  5
212
330
1F
100
AcDbEntity
  8
9
  6
Continuous
 62
     7
370
    35
100
AcDbLine
 10
87.52119144048365
 20
174.8699358230303
 30
0.0
 11
87.52119144048365
 21
173.7301677346415
 31
0.0
  0
ARC
  5
213
330
1F
100
AcDbEntity
  8
9
  6
Continuous
 62
     7
370
    35
100
AcDbCircle
 10
90.38617859347445
 20
194.0050296035824
 30
0.0
 40
19.34838405080195
100
AcDbArc
 50
260.7353635283781
 51
263.2347833067417
  0
ARC
  5
214
330
1F
100
AcDbEntity
  8
9
  6
Continuous
 62
     7
370
    35
100
AcDbCircle
 10
90.02119144048365
 20
192.9163597845854
 30
0.0
 40
19.34838405080195
100
AcDbArc
 50
262.5760704103714
 51
264.5635250583098
  0
ARC
  5
215
330
1F
100
AcDbEntity
  8
9
  6
Continuous
 62
     7
370
    35
100
AcDbCircle
 10
89.77119144048388
 20
158.2126829073665
 30
0.0
 40
19.34838405080195
100
AcDbArc
 50
95.50380356383918
 51
97.4239295896282
  0
ARC
  5
216
330
1F
100
AcDbEntity
  8
9
  6
Continuous
 62
     7
370
    35
100
AcDbCircle
 10
89.77119144048365
 20
196.5850670072543
 30
0.0
 40
19.34838405080195
100
AcDbArc
 50
262.5760704103714
 51
264.5274317382558
  0
ARC
  5
217
330
1F
100
AcDbEntity
  8
9
  6
Continuous
 62
     7
370
    35
100
AcDbCircle
 10
87.39619144048388
 20
177.4881439362907
 30
0.0
 40
1.200000000000003
100
AcDbArc
 50
68.57670275210421
 51
89.99999999999991
  0
ARC
  5
218
330
1F
100
AcDbEntity
  8
9
  6
Continuous
 62
     7
370
    35
100
AcDbCircle
 10
89.24925876650858
 20
153.2927561949593
 30
0.0
 40
24.90306397403396
100
AcDbArc
 50
93.18305488756482
 51
94.2673930578534
  0
LINE
  5
219
330
1F
100
AcDbEntity
  8
9
  6
Continuous
 62
     7
370
    35
100
AcDbLine
 10
87.02119144048388
 20
177.7881439362907
 30
0.0
 11
87.39619144048388
 21
177.7881439362907
 31
0.0
  0
LINE
  5
21A
330
1F
100
AcDbEntity
  8
9
  6
Continuous
 62
     7
370
    35
100
AcDbLine
 10
93.02119144048365
 20
170.3650324949897
 30
0.0
 11
93.02119144048365
 21
173.3229888189944
 31
0.0
  0
ARC
  5
21B
330
1F
100
AcDbEntity
  8
9
  6
Continuous
 62
     7
370
    35
100
AcDbCircle
 10
84.02119144048388
 20
172.5381439362907
 30
0.0
 40
10.5
100
AcDbArc
 50
345.8509954910602
 51
0.0
  0
LINE
  5
21C
330
1F
100
AcDbEntity
  8
9
  6
Continuous
 62
     7
370
    35
100
AcDbLine
 10
94.67063851444217
 20
160.9351417155696
 30
0.0
 11
91.68613378407017
 21
160.9351417155696
 31
0.0
  0
ARC
  5
21D
330
1F
100
AcDbEntity
  8
9
  6
Continuous
 62
     7
370
    35
100
AcDbCircle
 10
90.02119144048365
 20
189.479424072472
 30
0.0
 40
19.34838405080195
100
AcDbArc
 50
274.7019833989382
 51
278.9197951763182
  0
LINE
  5
21E
330
1F
100
AcDbEntity
  8
9
  6
Continuous
 62
     7
370
    35
100
AcDbLine
 10
92.7481611321924
 20
168.8381439362908
 30
0.0
 11
92.22119144048392
 21
168.8381439362908
 31
0.0
  0
ARC
  5
21F
330
1F
100
AcDbEntity
  8
9
  6
Continuous
 62
     7
370
    35
100
AcDbCircle
 10
90.02119144048365
 20
165.0465796340474
 30
0.0
 40
5.0
100
AcDbArc
 50
60.00000000000208
 51
63.67919017838043
  0
ARC
  5
220
330
1F
100
AcDbEntity
  8
9
  6
Continuous
 62
     7
370
    35
100
AcDbCircle
 10
90.59728155639239
 20
179.0506393818982
 30
0.0
 40
9.665949153877632
100
AcDbArc
 50
276.9756762943014
 51
278.562612161574
  0
ARC
  5
221
330
1F
100
AcDbEntity
  8
9
  6
Continuous
 62
     7
370
    35
100
AcDbCircle
 10
91.4516277907359
 20
173.376498287979
 30
0.0
 40
3.927849761041192
100
AcDbArc
 50
278.5626121941165
 51
283.6591051867167
  0
LINE
  5
222
330
1F
100
AcDbEntity
  8
9
  6
Continuous
 62
     7
370
    35
100
AcDbLine
 10
90.02119144048365
 20
161.2351417155689
 30
0.0
 11
95.34145890769113
 21
161.2351417155689
 31
0.0
  0
LINE
  5
223
330
1F
100
AcDbEntity
  8
9
  6
Continuous
 62
     7
370
    35
100
AcDbLine
 10
92.02119144048388
 20
168.6381439362908
 30
0.0
 11
92.02119144048388
 21
165.8248067296729
 31
0.0
  0
ARC
  5
224
330
1F
100
AcDbEntity
  8
9
  6
Continuous
 62
     7
370
    35
100
AcDbCircle
 10
92.22119144048392
 20
168.6381439362908
 30
0.0
 40
0.2000000000000028
100
AcDbArc
 50
89.99999999999991
 51
179.9999999999998
  0
ARC
  5
225
330
1F
100
AcDbEntity
  8
9
  6
Continuous
 62
     7
370
    35
100
AcDbCircle
 10
91.72119144048392
 20
167.6206107188272
 30
0.0
 40
0.2999999999999972
100
AcDbArc
 50
279.594068226836
 51
0.0
  0
LINE
  5
226
330
1F
100
AcDbEntity
  8
9
  6
Continuous
 62
     7
370
    35
100
AcDbLine
 10
91.77119144048365
 20
169.5604607752564
 30
0.0
 11
91.77119144048365
 21
167.0480902736603
 31
0.0
  0
LINE
  5
227
330
1F
100
AcDbEntity
  8
9
  6
Continuous
 62
     7
370
    35
100
AcDbLine
 10
95.57063851444272
 20
164.1851417155699
 30
0.0
 11
95.57063851444272
 21
161.83514171557
 31
0.0
  0
ARC
  5
228
330
1F
100
AcDbEntity
  8
9
  6
Continuous
 62
     7
370
    35
100
AcDbCircle
 10
92.7481611321924
 20
170.3381439362908
 30
0.0
 40
1.5
100
AcDbArc
 50
269.9999999999998
 51
345.8509954910602
  0
LINE
  5
229
330
1F
100
AcDbEntity
  8
9
  6
Continuous
 62
     7
370
    35
100
AcDbLine
 10
93.28314744860253
 20
168.9367911465715
 30
0.0
 11
92.52119144048365
 21
169.3767066529697
 31
0.0
  0
LINE
  5
22A
330
1F
100
AcDbEntity
  8
9
  6
Continuous
 62
     7
370
    35
100
AcDbLine
 10
92.87119144048378
 20
170.3420923520536
 30
0.0
 11
92.87119144048378
 21
170.1856500065839
 31
0.0
  0
ARC
  5
22B
330
1F
100
AcDbEntity
  8
9
  6
Continuous
 62
     7
370
    35
100
AcDbCircle
 10
92.22706037017323
 20
170.1856500065839
 30
0.0
 40
0.6441310703106069
100
AcDbArc
 50
283.6591051852992
 51
0.0
  0
ARC
  5
22C
330
1F
100
AcDbEntity
  8
9
  6
Continuous
 62
     7
370
    35
100
AcDbCircle
 10
89.65620428749261
 20
194.0050296035806
 30
0.0
 40
19.34838405080195
100
AcDbArc
 50
276.7652166932575
 51
279.2646364716211
  0
ARC
  5
22D
330
1F
100
AcDbEntity
  8
9
  6
Continuous
 62
     7
370
    35
100
AcDbCircle
 10
90.27119144048388
 20
158.2126829073665
 30
0.0
 40
19.34838405080195
100
AcDbArc
 50
82.57607041037178
 51
84.49619643616082
  0
ARC
  5
22E
330
1F
100
AcDbEntity
  8
9
  6
Continuous
 62
     7
370
    35
100
AcDbCircle
 10
90.27119144048365
 20
196.5850670072543
 30
0.0
 40
19.34838405080195
100
AcDbArc
 50
275.4725682617435
 51
277.4239295896278
  0
ARC
  5
22F
330
1F
100
AcDbEntity
  8
9
  6
Continuous
 62
     7
370
    35
100
AcDbCircle
 10
92.64619144048388
 20
177.4881439362907
 30
0.0
 40
1.200000000000003
100
AcDbArc
 50
89.99999999999991
 51
111.4232972478971
  0
ARC
  5
230
330
1F
100
AcDbEntity
  8
9
  6
Continuous
 62
     7
370
    35
100
AcDbCircle
 10
90.79312411306753
 20
153.2927561769283
 30
0.0
 40
24.90306399211668
100
AcDbArc
 50
85.73260694204059
 51
86.81694511154178
  0
LINE
  5
231
330
1F
100
AcDbEntity
  8
9
  6
Continuous
 62
     7
370
    35
100
AcDbLine
 10
94.52119144048388
 20
173.454472593304
 30
0.0
 11
91.82308036721278
 21
173.2179673750238
 31
0.0
  0
LINE
  5
232
330
1F
100
AcDbEntity
  8
9
  6
Continuous
 62
     7
370
    35
100
AcDbLine
 10
94.52119144048388
 20
173.5548560355621
 30
0.0
 11
91.8302957898023
 21
173.3189832912787
 31
0.0
  0
ARC
  5
233
330
1F
100
AcDbEntity
  8
9
  6
Continuous
 62
     7
370
    35
100
AcDbCircle
 10
90.02119144048365
 20
192.9163597845854
 30
0.0
 40
19.34838405080195
100
AcDbArc
 50
275.4364749416895
 51
277.4239295896278
  0
ARC
  5
234
330
1F
100
AcDbEntity
  8
9
  6
Continuous
 62
     7
370
    35
100
AcDbCircle
 10
93.02119144048388
 20
176.2881439362907
 30
0.0
 40
1.5
100
AcDbArc
 50
0.0
 51
89.99999999999991
  0
LINE
  5
235
330
1F
100
AcDbEntity
  8
9
  6
Continuous
 62
     7
370
    35
100
AcDbLine
 10
92.77119144048365
 20
177.3988749573104
 30
0.0
 11
92.77119144048365
 21
174.9090399614083
 31
0.0
  0
LINE
  5
236
330
1F
100
AcDbEntity
  8
9
  6
Continuous
 62
     7
370
    35
100
AcDbLine
 10
94.52119144048388
 20
173.905479433721
 30
0.0
 11
92.52119144048365
 21
174.0807911328004
 31
0.0
  0
LINE
  5
237
330
1F
100
AcDbEntity
  8
9
  6
Continuous
 62
     7
370
    35
100
AcDbLine
 10
92.52119144048365
 20
174.8699358230285
 30
0.0
 11
92.52119144048365
 21
173.7301677346415
 31
0.0
  0
LINE
  5
238
330
1F
100
AcDbEntity
  8
9
  6
Continuous
 62
     7
370
    35
100
AcDbLine
 10
94.52119144048388
 20
176.2881439362907
 30
0.0
 11
94.52119144048388
 21
172.5381439362907
 31
0.0
  0
LINE
  5
239
330
1F
100
AcDbEntity
  8
9
  6
Continuous
 62
     7
370
    35
100
AcDbLine
 10
93.02119144048388
 20
177.7881439362907
 30
0.0
 11
92.64619144048388
 21
177.7881439362907
 31
0.0
  0
LINE
  5
23A
330
1F
100
AcDbEntity
  8
9
  6
Continuous
 62
     7
370
    35
100
AcDbLine
 10
88.42207317116035
 20
201.274355277942
 30
0.0
 11
90.02119144048365
 21
201.274355277942
 31
0.0
  0
ARC
  5
23B
330
1F
100
AcDbEntity
  8
9
  6
Continuous
 62
     7
370
    35
100
AcDbCircle
 10
89.69905916619186
 20
201.885141715569
 30
0.0
 40
1.299999999999997
100
AcDbArc
 50
89.99999999999991
 51
168.681166272608
  0
ARC
  5
23C
330
1F
100
AcDbEntity
  8
9
  6
Continuous
 62
     7
370
    35
100
AcDbCircle
 10
89.5888602617334
 20
200.9851417155689
 30
0.0
 40
1.200000000000003
100
AcDbArc
 50
89.99999999999991
 51
162.6940025391945
  0
ARC
  5
23D
330
1F
100
AcDbEntity
  8
9
  6
Continuous
 62
     7
370
    35
100
AcDbCircle
 10
90.02197599597602
 20
189.7827954483039
 30
0.0
 40
1.599999999999994
100
AcDbArc
 50
197.33173146614
 51
219.4294468810419
  0
ARC
  5
23E
330
1F
100
AcDbEntity
  8
9
  6
Continuous
 62
     7
370
    35
100
AcDbCircle
 10
90.02197599597602
 20
189.7827954483039
 30
0.0
 40
1.599999999999994
100
AcDbArc
 50
197.33173146614
 51
219.4294468810419
  0
LINE
  5
23F
330
1F
100
AcDbEntity
  8
9
  6
Continuous
 62
     7
370
    35
100
AcDbLine
 10
86.02119144048365
 20
188.7665913332084
 30
0.0
 11
94.02119144048365
 21
188.7665913332084
 31
0.0
  0
LINE
  5
240
330
1F
100
AcDbEntity
  8
9
  6
Continuous
 62
     7
370
    35
100
AcDbLine
 10
87.22519753126957
 20
190.185141715569
 30
0.0
 11
90.02119144048365
 21
190.185141715569
 31
0.0
  0
ARC
  5
241
330
1F
100
AcDbEntity
  8
9
  6
Continuous
 62
     7
370
    35
100
AcDbCircle
 10
73.27119144048365
 20
196.1466948774314
 30
0.0
 40
12.5
100
AcDbArc
 50
343.7397952916888
 51
16.26020470830985
  0
LINE
  5
242
330
1F
100
AcDbEntity
  8
9
  6
Continuous
 62
     7
370
    35
100
AcDbLine
 10
86.02119144048365
 20
186.9512307572395
 30
0.0
 11
84.4331099164261
 21
186.8108043165034
 31
0.0
  0
LINE
  5
243
330
1F
100
AcDbEntity
  8
9
  6
Continuous
 62
     7
370
    35
100
AcDbLine
 10
83.37119144048378
 20
183.3801677346416
 30
0.0
 11
83.37119144048378
 21
186.3485322737433
 31
0.0
  0
LINE
  5
244
330
1F
100
AcDbEntity
  8
9
  6
Continuous
 62
     7
370
    35
100
AcDbLine
 10
83.52119144048365
 20
183.3801677346416
 30
0.0
 11
83.37119144048378
 21
183.3801677346416
 31
0.0
  0
ARC
  5
245
330
1F
100
AcDbEntity
  8
9
  6
Continuous
 62
     7
370
    35
100
AcDbCircle
 10
84.52119144048365
 20
185.8146910472817
 30
0.0
 40
1.0
100
AcDbArc
 50
95.05324815125094
 51
179.9999999999998
  0
LINE
  5
246
330
1F
100
AcDbEntity
  8
9
  6
Continuous
 62
     7
370
    35
100
AcDbLine
 10
83.37119144048378
 20
186.3485322737433
 30
0.0
 11
83.52119144048365
 21
186.3485322737433
 31
0.0
  0
LINE
  5
247
330
1F
100
AcDbEntity
  8
9
  6
Continuous
 62
     7
370
    35
100
AcDbLine
 10
83.52119144048365
 20
182.6371634498837
 30
0.0
 11
83.52119144048365
 21
186.3485322737433
 31
0.0
  0
LINE
  5
248
330
1F
100
AcDbEntity
  8
9
  6
Continuous
 62
     7
370
    35
100
AcDbLine
 10
86.02119144048365
 20
186.3915224008174
 30
0.0
 11
86.02119144048365
 21
188.7665913332084
 31
0.0
  0
ARC
  5
249
330
1F
100
AcDbEntity
  8
9
  6
Continuous
 62
     7
370
    35
100
AcDbCircle
 10
86.02119144048365
 20
182.9915224008173
 30
0.0
 40
1.5
100
AcDbArc
 50
0.0
 51
75.7499673022053
  0
LINE
  5
24A
330
1F
100
AcDbEntity
  8
9
  6
Continuous
 62
     7
370
    35
100
AcDbLine
 10
86.3904222097145
 20
184.4453685546634
 30
0.0
 11
86.2768147689147
 21
185.9980035789281
 31
0.0
  0
LINE
  5
24B
330
1F
100
AcDbEntity
  8
9
  6
Continuous
 62
     7
370
    35
100
AcDbLine
 10
86.33052232323061
 20
185.26400033661
 30
0.0
 11
84.95045782063525
 21
185.26400033661
 31
0.0
  0
ARC
  5
24C
330
1F
100
AcDbEntity
  8
9
  6
Continuous
 62
     7
370
    35
100
AcDbCircle
 10
85.79142690235594
 20
185.9624873935699
 30
0.0
 40
0.4866855046380607
100
AcDbArc
 50
4.18491612511109
 51
61.82925977025356
  0
ARC
  5
24D
330
1F
100
AcDbEntity
  8
9
  6
Continuous
 62
     7
370
    35
100
AcDbCircle
 10
87.22519753126957
 20
191.685141715569
 30
0.0
 40
1.5
100
AcDbArc
 50
235.2454430135334
 51
269.9999999999998
  0
ARC
  5
24E
330
1F
100
AcDbEntity
  8
9
  6
Continuous
 62
     7
370
    35
100
AcDbCircle
 10
85.8000422562587
 20
189.6311377131121
 30
0.0
 40
1.0
100
AcDbArc
 50
55.24544301353394
 51
122.0970060036955
  0
LINE
  5
24F
330
1F
100
AcDbEntity
  8
9
  6
Continuous
 62
     7
370
    35
100
AcDbLine
 10
87.58273006708404
 20
190.185141715569
 30
0.0
 11
88.50631082399931
 21
189.2615609586535
 31
0.0
  0
LINE
  5
250
330
1F
100
AcDbEntity
  8
9
  6
Continuous
 62
     7
370
    35
100
AcDbLine
 10
83.6972282147045
 20
201.274355277942
 30
0.0
 11
86.83362415817223
 21
201.274355277942
 31
0.0
  0
ARC
  5
251
330
1F
100
AcDbEntity
  8
9
  6
Continuous
 62
     7
370
    35
100
AcDbCircle
 10
84.85474048446903
 20
201.885141715569
 30
0.0
 40
1.299999999999997
100
AcDbArc
 50
89.99999999999991
 51
167.6791678141247
  0
LINE
  5
252
330
1F
100
AcDbEntity
  8
9
  6
Continuous
 62
     7
370
    35
100
AcDbLine
 10
84.72909363302264
 20
202.185141715569
 30
0.0
 11
86.65370498766114
 21
202.185141715569
 31
0.0
  0
ARC
  5
253
330
1F
100
AcDbEntity
  8
9
  6
Continuous
 62
     7
370
    35
100
AcDbCircle
 10
84.02119144048365
 20
201.6001298595704
 30
0.0
 40
1.0
100
AcDbArc
 50
319.7809012554451
 51
340.9874906208182
  0
ARC
  5
254
330
1F
100
AcDbEntity
  8
9
  6
Continuous
 62
     7
370
    35
100
AcDbCircle
 10
82.75020622554811
 20
200.685141715569
 30
0.0
 40
0.5
100
AcDbArc
 50
191.7577571472742
 51
347.6791678141223
  0
LINE
  5
255
330
1F
100
AcDbEntity
  8
9
  6
Continuous
 62
     7
370
    35
100
AcDbLine
 10
82.95020622554793
 20
200.185141715569
 30
0.0
 11
82.75020622554811
 21
200.185141715569
 31
0.0
  0
LINE
  5
256
330
1F
100
AcDbEntity
  8
9
  6
Continuous
 62
     7
370
    35
100
AcDbLine
 10
82.2606972790928
 20
200.5832545655453
 30
0.0
 11
81.93458240415939
 21
202.1500483056304
 31
0.0
  0
ARC
  5
257
330
1F
100
AcDbEntity
  8
9
  6
Continuous
 62
     7
370
    35
100
AcDbCircle
 10
84.72909363302264
 20
201.185141715569
 30
0.0
 40
1.0
100
AcDbArc
 50
89.99999999999991
 51
159.9682734747136
  0
LINE
  5
258
330
1F
100
AcDbEntity
  8
9
  6
Continuous
 62
     7
370
    35
100
AcDbLine
 10
83.23869025259191
 20
200.5784489073612
 30
0.0
 11
83.58468201415562
 21
202.1625430169085
 31
0.0
  0
LINE
  5
259
330
1F
100
AcDbEntity
  8
9
  6
Continuous
 62
     7
370
    35
100
AcDbLine
 10
83.41995777010888
 20
200.5138715010464
 30
0.0
 11
83.78959054390074
 21
201.5276821446141
 31
0.0
  0
ARC
  5
25A
330
1F
100
AcDbEntity
  8
9
  6
Continuous
 62
     7
370
    35
100
AcDbCircle
 10
82.95020622554793
 20
200.685141715569
 30
0.0
 40
0.5
100
AcDbArc
 50
269.9999999999998
 51
339.9682734747133
  0
LINE
  5
25B
330
1F
100
AcDbEntity
  8
9
  6
Continuous
 62
     7
370
    35
100
AcDbLine
 10
86.66441403737426
 20
202.1357276794974
 30
0.0
 11
86.95244604348008
 21
200.6694866552948
 31
0.0
  0
ARC
  5
25C
330
1F
100
AcDbEntity
  8
9
  6
Continuous
 62
     7
370
    35
100
AcDbCircle
 10
85.3887939235934
 20
201.885141715569
 30
0.0
 40
1.299999999999997
100
AcDbArc
 50
11.11380719249477
 51
89.99999999999991
  0
LINE
  5
25D
330
1F
100
AcDbEntity
  8
9
  6
Continuous
 62
     7
370
    35
100
AcDbLine
 10
85.3887939235934
 20
203.185141715569
 30
0.0
 11
84.85474048446903
 21
203.185141715569
 31
0.0
  0
ARC
  5
25E
330
1F
100
AcDbEntity
  8
9
  6
Continuous
 62
     7
370
    35
100
AcDbCircle
 10
87.54119378830191
 20
200.7851417155693
 30
0.0
 40
0.5999999999999943
100
AcDbArc
 50
191.1138071925059
 51
348.6811662726125
  0
ARC
  5
25F
330
1F
100
AcDbEntity
  8
9
  6
Continuous
 62
     7
370
    35
100
AcDbCircle
 10
87.64119378830182
 20
200.7851417155693
 30
0.0
 40
0.5999999999999943
100
AcDbArc
 50
269.9999999999998
 51
342.6940025391838
  0
LINE
  5
260
330
1F
100
AcDbEntity
  8
9
  6
Continuous
 62
     7
370
    35
100
AcDbLine
 10
87.64119378830182
 20
200.185141715569
 30
0.0
 11
87.54119378830191
 21
200.185141715569
 31
0.0
  0
LINE
  5
261
330
1F
100
AcDbEntity
  8
9
  6
Continuous
 62
     7
370
    35
100
AcDbLine
 10
88.12952390590371
 20
200.6673806323467
 30
0.0
 11
88.42434391138622
 21
202.1402907292181
 31
0.0
  0
LINE
  5
262
330
1F
100
AcDbEntity
  8
9
  6
Continuous
 62
     7
370
    35
100
AcDbLine
 10
88.21403158815801
 20
200.6066568280976
 30
0.0
 11
88.4431846620208
 21
201.3421114905127
 31
0.0
  0
ARC
  5
263
330
1F
100
AcDbEntity
  8
9
  6
Continuous
 62
     7
370
    35
100
AcDbCircle
 10
106.7711914404836
 20
196.1466948774314
 30
0.0
 40
12.5
100
AcDbArc
 50
163.7397952916891
 51
196.2602047083095
  0
LINE
  5
264
330
1F
100
AcDbEntity
  8
9
  6
Continuous
 62
     7
370
    35
100
AcDbLine
 10
92.45965281388325
 20
190.185141715569
 30
0.0
 11
91.53607205619673
 21
189.2615609578822
 31
0.0
  0
ARC
  5
265
330
1F
100
AcDbEntity
  8
9
  6
Continuous
 62
     7
370
    35
100
AcDbCircle
 10
94.02119144048365
 20
182.9915224008173
 30
0.0
 40
1.5
100
AcDbArc
 50
104.2500326978068
 51
179.9999999999998
  0
LINE
  5
266
330
1F
100
AcDbEntity
  8
9
  6
Continuous
 62
     7
370
    35
100
AcDbLine
 10
92.81718534969795
 20
190.185141715569
 30
0.0
 11
90.02119144048365
 21
190.185141715569
 31
0.0
  0
ARC
  5
267
330
1F
100
AcDbEntity
  8
9
  6
Continuous
 62
     7
370
    35
100
AcDbCircle
 10
90.02197599597602
 20
189.7827954483039
 30
0.0
 40
1.599999999999994
100
AcDbArc
 50
320.5705531189575
 51
342.7537116970603
  0
LINE
  5
268
330
1F
100
AcDbEntity
  8
9
  6
Continuous
 62
     7
370
    35
100
AcDbLine
 10
94.02119144048365
 20
188.7665913332084
 30
0.0
 11
94.02119144048365
 21
186.3915224008174
 31
0.0
  0
LINE
  5
269
330
1F
100
AcDbEntity
  8
9
  6
Continuous
 62
     7
370
    35
100
AcDbLine
 10
95.0919250603325
 20
185.26400033661
 30
0.0
 11
93.71186055773691
 21
185.26400033661
 31
0.0
  0
LINE
  5
26A
330
1F
100
AcDbEntity
  8
9
  6
Continuous
 62
     7
370
    35
100
AcDbLine
 10
94.02119144048365
 20
186.9512307572395
 30
0.0
 11
95.60927296454119
 21
186.8108043165034
 31
0.0
  0
LINE
  5
26B
330
1F
100
AcDbEntity
  8
9
  6
Continuous
 62
     7
370
    35
100
AcDbLine
 10
93.76556811205282
 20
185.9980035789281
 30
0.0
 11
93.65196067125302
 21
184.4453685546634
 31
0.0
  0
ARC
  5
26C
330
1F
100
AcDbEntity
  8
9
  6
Continuous
 62
     7
370
    35
100
AcDbCircle
 10
94.25095597861159
 20
185.9624873935699
 30
0.0
 40
0.4866855046380607
100
AcDbArc
 50
118.1707402297465
 51
175.8150838748889
  0
ARC
  5
26D
330
1F
100
AcDbEntity
  8
9
  6
Continuous
 62
     7
370
    35
100
AcDbCircle
 10
94.24234062470904
 20
189.6311377131121
 30
0.0
 40
1.0
100
AcDbArc
 50
57.90299399629835
 51
124.7545569864661
  0
ARC
  5
26E
330
1F
100
AcDbEntity
  8
9
  6
Continuous
 62
     7
370
    35
100
AcDbCircle
 10
92.81718534969795
 20
191.685141715569
 30
0.0
 40
1.5
100
AcDbArc
 50
269.9999999999998
 51
304.7545569864811
  0
ARC
  5
26F
330
1F
100
AcDbEntity
  8
9
  6
Continuous
 62
     7
370
    35
100
AcDbCircle
 10
92.50118909266584
 20
200.7851417155693
 30
0.0
 40
0.5999999999999943
100
AcDbArc
 50
191.3188337273868
 51
348.8861928074933
  0
ARC
  5
270
330
1F
100
AcDbEntity
  8
9
  6
Continuous
 62
     7
370
    35
100
AcDbCircle
 10
92.4011890926657
 20
200.7851417155693
 30
0.0
 40
0.5999999999999943
100
AcDbArc
 50
197.3059974608154
 51
269.9999999999998
  0
LINE
  5
271
330
1F
100
AcDbEntity
  8
9
  6
Continuous
 62
     7
370
    35
100
AcDbLine
 10
91.6203097098074
 20
201.274355277942
 30
0.0
 11
90.02119144048365
 21
201.274355277942
 31
0.0
  0
ARC
  5
272
330
1F
100
AcDbEntity
  8
9
  6
Continuous
 62
     7
370
    35
100
AcDbCircle
 10
90.34332371477566
 20
201.885141715569
 30
0.0
 40
1.299999999999997
100
AcDbArc
 50
11.31883372739197
 51
89.99999999999991
  0
LINE
  5
273
330
1F
100
AcDbEntity
  8
9
  6
Continuous
 62
     7
370
    35
100
AcDbLine
 10
90.45352261923435
 20
202.185141715569
 30
0.0
 11
90.02119144048365
 21
202.185141715569
 31
0.0
  0
LINE
  5
274
330
1F
100
AcDbEntity
  8
9
  6
Continuous
 62
     7
370
    35
100
AcDbLine
 10
90.34332371477566
 20
203.185141715569
 30
0.0
 11
89.69905916619186
 21
203.185141715569
 31
0.0
  0
LINE
  5
275
330
1F
100
AcDbEntity
  8
9
  6
Continuous
 62
     7
370
    35
100
AcDbLine
 10
89.5888602617334
 20
202.185141715569
 30
0.0
 11
90.02119144048365
 21
202.185141715569
 31
0.0
  0
LINE
  5
276
330
1F
100
AcDbEntity
  8
9
  6
Continuous
 62
     7
370
    35
100
AcDbLine
 10
91.91285897506381
 20
200.6673806323467
 30
0.0
 11
91.61803896958108
 21
202.1402907292181
 31
0.0
  0
ARC
  5
277
330
1F
100
AcDbEntity
  8
9
  6
Continuous
 62
     7
370
    35
100
AcDbCircle
 10
90.45352261923435
 20
200.9851417155689
 30
0.0
 40
1.200000000000003
100
AcDbArc
 50
17.30599746080545
 51
89.99999999999991
  0
LINE
  5
278
330
1F
100
AcDbEntity
  8
9
  6
Continuous
 62
     7
370
    35
100
AcDbLine
 10
91.82835129280929
 20
200.6066568280976
 30
0.0
 11
91.59919821894673
 21
201.3421114905127
 31
0.0
  0
ARC
  5
279
330
1F
100
AcDbEntity
  8
9
  6
Continuous
 62
     7
370
    35
100
AcDbCircle
 10
94.65358895737435
 20
201.885141715569
 30
0.0
 40
1.299999999999997
100
AcDbArc
 50
89.99999999999991
 51
168.8861928075052
  0
LINE
  5
27A
330
1F
100
AcDbEntity
  8
9
  6
Continuous
 62
     7
370
    35
100
AcDbLine
 10
95.31328924794488
 20
202.185141715569
 30
0.0
 11
93.38867789330706
 21
202.185141715569
 31
0.0
  0
LINE
  5
27B
330
1F
100
AcDbEntity
  8
9
  6
Continuous
 62
     7
370
    35
100
AcDbLine
 10
93.3779688435935
 20
202.1357276794974
 30
0.0
 11
93.08993683748767
 21
200.6694866552948
 31
0.0
  0
LINE
  5
27C
330
1F
100
AcDbEntity
  8
9
  6
Continuous
 62
     7
370
    35
100
AcDbLine
 10
92.50118909266584
 20
200.185141715569
 30
0.0
 11
92.4011890926657
 21
200.185141715569
 31
0.0
  0
LINE
  5
27D
330
1F
100
AcDbEntity
  8
9
  6
Continuous
 62
     7
370
    35
100
AcDbLine
 10
94.65358895737435
 20
203.185141715569
 30
0.0
 11
95.18764239649826
 21
203.185141715569
 31
0.0
  0
ARC
  5
27E
330
1F
100
AcDbEntity
  8
9
  6
Continuous
 62
     7
370
    35
100
AcDbCircle
 10
96.02119144048365
 20
201.6001298595704
 30
0.0
 40
1.0
100
AcDbArc
 50
199.0125093791811
 51
220.2190987445542
  0
ARC
  5
27F
330
1F
100
AcDbEntity
  8
9
  6
Continuous
 62
     7
370
    35
100
AcDbCircle
 10
97.28804318491356
 20
168.9822733028065
 30
0.0
 40
10.74860911180585
100
AcDbArc
 50
270.9500223564177
 51
356.9265203792469
  0
ARC
  5
280
330
1F
100
AcDbEntity
  8
9
  6
Continuous
 62
     7
370
    35
100
AcDbCircle
 10
95.02119144048365
 20
168.4059692490782
 30
0.0
 40
15.0
100
AcDbArc
 50
306.6829888003692
 51
0.0
  0
ARC
  5
281
330
1F
100
AcDbEntity
  8
9
  6
Continuous
 62
     7
370
    35
100
AcDbCircle
 10
95.08188639280806
 20
169.5599211865067
 30
0.0
 40
11.0
100
AcDbArc
 50
294.519208731022
 51
353.9783228073723
  0
ARC
  5
282
330
1F
100
AcDbEntity
  8
9
  6
Continuous
 62
     7
370
    35
100
AcDbCircle
 10
95.02119144048365
 20
168.4059692490782
 30
0.0
 40
17.0
100
AcDbArc
 50
289.7499227956413
 51
0.0
  0
LINE
  5
283
330
1F
100
AcDbEntity
  8
9
  6
Continuous
 62
     7
370
    35
100
AcDbLine
 10
97.55445716178392
 20
160.049591106638
 30
0.0
 11
96.17464747175754
 21
160.8462246026049
 31
0.0
  0
LINE
  5
284
330
1F
100
AcDbEntity
  8
8
  6
Continuous
 62
     4
370
    25
100
AcDbLine
 10
99.09975986375807
 20
136.9845376723526
 30
0.0
 11
99.53468576874374
 21
150.9014711396582
 31
0.0
  0
LINE
  5
285
330
1F
100
AcDbEntity
  8
9
  6
Continuous
 62
     7
370
    35
100
AcDbLine
 10
100.2992456683961
 20
138.1840234769904
 30
0.0
 11
100.6847057948094
 21
150.5181311309695
 31
0.0
  0
LINE
  5
286
330
1F
100
AcDbEntity
  8
9
  6
Continuous
 62
     7
370
    35
100
AcDbLine
 10
98.52119144048365
 20
136.4059692490782
 30
0.0
 11
100.2992456683961
 21
138.1840234769904
 31
0.0
  0
ARC
  5
287
330
1F
100
AcDbEntity
  8
9
  6
Continuous
 62
     7
370
    35
100
AcDbCircle
 10
100.9950621634085
 20
160.3864388023637
 30
0.0
 40
5.0
100
AcDbArc
 50
284.679080052201
 51
306.6829888003687
  0
ARC
  5
288
330
1F
100
AcDbEntity
  8
9
  6
Continuous
 62
     7
370
    35
100
AcDbCircle
 10
103.9089399721521
 20
149.2628519207019
 30
0.0
 40
6.498907295833106
100
AcDbArc
 50
104.6790800522011
 51
140.8990391255014
  0
LINE
  5
289
330
1F
100
AcDbEntity
  8
9
  6
Continuous
 62
     7
370
    35
100
AcDbLine
 10
100.6847057948094
 20
150.5181311309695
 30
0.0
 11
99.52119144048365
 21
150.9059692490782
 31
0.0
  0
LINE
  5
28A
330
1F
100
AcDbEntity
  8
9
  6
Continuous
 62
     7
370
    35
100
AcDbLine
 10
98.35224245114031
 20
152.4059692490782
 30
0.0
 11
98.35224245114031
 21
156.435141715569
 31
0.0
  0
LINE
  5
28B
330
1F
100
AcDbEntity
  8
9
  6
Continuous
 62
     7
370
    35
100
AcDbLine
 10
99.52119144048365
 20
152.4059692490782
 30
0.0
 11
99.52119144048365
 21
150.9059692490782
 31
0.0
  0
SPLINE
  5
28C
330
1F
100
AcDbEntity
  8
9
  6
Continuous
 62
     7
370
    35
100
AcDbSpline
210
0.0
220
0.0
230
1.0
 70
    12
 71
     3
 72
    10
 73
     6
 74
     0
 42
0.000000001
 43
0.0000001
 40
0.0
 40
0.0
 40
0.0
 40
0.0
 40
0.2698141329852889
 40
0.939574905657864
 40
2.053275262982231
 40
2.053275262982231
 40
2.053275262982231
 40
2.053275262982231
 10
98.67063851444217
 20
159.1847070496571
 30
0.0
 41
1.0
 10
98.65185725400553
 20
159.0924181419836
 30
0.0
 41
1.0
 10
98.5864551907124
 20
158.7710400853143
 30
0.0
 41
1.0
 10
97.79309001398701
 20
158.5844965382771
 30
0.0
 41
1.0
 10
97.22523889455651
 20
158.5756855480836
 30
0.0
 41
1.0
 10
96.87063851444177
 20
158.57018343606
 30
0.0
 41
1.0
  0
ELLIPSE
  5
28D
330
1F
100
AcDbEntity
  8
9
  6
Continuous
 62
     7
370
    35
100
AcDbEllipse
 10
96.87063851444154
 20
159.6347070496572
 30
0.0
 11
-1.35000000000025
 21
4.361970350968792E-15
 31
0.0
210
0.0
220
0.0
230
1.0
 40
0.121869343405077
 41
1.57079632679489
 42
3.141592653589787
  0
ARC
  5
28E
330
1F
100
AcDbEntity
  8
9
  6
Continuous
 62
     7
370
    35
100
AcDbCircle
 10
98.2206385144419
 20
159.9894677081697
 30
0.0
 40
0.4500000000000028
100
AcDbArc
 50
0.0
 51
179.9999999999998
  0
LINE
  5
28F
330
1F
100
AcDbEntity
  8
9
  6
Continuous
 62
     7
370
    35
100
AcDbLine
 10
97.77063851444208
 20
159.9894677081697
 30
0.0
 11
97.77063851444208
 21
159.5120783883551
 31
0.0
  0
LINE
  5
290
330
1F
100
AcDbEntity
  8
9
  6
Continuous
 62
     7
370
    35
100
AcDbLine
 10
97.4662579006459
 20
156.4059692490782
 30
0.0
 11
97.4662579006459
 21
158.2351417155648
 31
0.0
  0
ARC
  5
291
330
1F
100
AcDbEntity
  8
9
  6
Continuous
 62
     7
370
    35
100
AcDbCircle
 10
98.32063851444181
 20
160.2797348331203
 30
0.0
 40
0.7999999999999972
100
AcDbArc
 50
196.7190914177046
 51
226.5674634422377
  0
LINE
  5
292
330
1F
100
AcDbEntity
  8
9
  6
Continuous
 62
     7
370
    35
100
AcDbLine
 10
98.67063851444217
 20
159.9894677081697
 30
0.0
 11
98.67063851444217
 21
159.1847070496571
 31
0.0
  0
ARC
  5
293
330
1F
100
AcDbEntity
  8
9
  6
Continuous
 62
     7
370
    35
100
AcDbCircle
 10
99.31486894018562
 20
160.2797348331205
 30
0.0
 40
0.7999999999999972
100
AcDbArc
 50
270.0000000000128
 51
294.5192087310233
  0
LINE
  5
294
330
1F
100
AcDbEntity
  8
9
  6
Continuous
 62
     7
370
    35
100
AcDbLine
 10
99.31486894018585
 20
159.4797348331205
 30
0.0
 11
98.67063851444195
 21
159.4797348331203
 31
0.0
  0
ARC
  5
295
330
1F
100
AcDbEntity
  8
9
  6
Continuous
 62
     7
370
    35
100
AcDbCircle
 10
82.02119144048365
 20
170.1466948774314
 30
0.0
 40
30.0
100
AcDbArc
 50
0.0
 51
40.21909874455459
  0
LINE
  5
296
330
1F
100
AcDbEntity
  8
9
  6
Continuous
 62
     7
370
    35
100
AcDbLine
 10
96.80386836413945
 20
181.8801677346416
 30
0.0
 11
100.434035697736
 21
182.1977662230333
 31
0.0
  0
ARC
  5
297
330
1F
100
AcDbEntity
  8
9
  6
Continuous
 62
     7
370
    35
100
AcDbCircle
 10
100.5211914404836
 20
181.2015715249417
 30
0.0
 40
1.0
100
AcDbArc
 50
0.0
 51
94.99999999999946
  0
LINE
  5
298
330
1F
100
AcDbEntity
  8
9
  6
Continuous
 62
     7
370
    35
100
AcDbLine
 10
96.3676947892894
 20
161.2351417155689
 30
0.0
 11
99.02119144048365
 21
161.2351417155689
 31
0.0
  0
LINE
  5
299
330
1F
100
AcDbEntity
  8
9
  6
Continuous
 62
     7
370
    35
100
AcDbLine
 10
96.47063851444145
 20
163.5351417155689
 30
0.0
 11
99.02119144048365
 21
163.5351417155689
 31
0.0
  0
LINE
  5
29A
330
1F
100
AcDbEntity
  8
9
  6
Continuous
 62
     7
370
    35
100
AcDbLine
 10
96.47063851444145
 20
164.1851417155699
 30
0.0
 11
96.47063851444145
 21
161.83514171557
 31
0.0
  0
LINE
  5
29B
330
1F
100
AcDbEntity
  8
9
  6
Continuous
 62
     7
370
    35
100
AcDbLine
 10
97.52119144048365
 20
161.2351417155689
 30
0.0
 11
97.52119144048365
 21
160.935141715569
 31
0.0
  0
LINE
  5
29C
330
1F
100
AcDbEntity
  8
9
  6
Continuous
 62
     7
370
    35
100
AcDbLine
 10
96.22948424125352
 20
160.935141715569
 30
0.0
 11
97.52119144048365
 21
160.935141715569
 31
0.0
  0
LINE
  5
29D
330
1F
100
AcDbEntity
  8
9
  6
Continuous
 62
     7
370
    35
100
AcDbLine
 10
96.3676947892894
 20
161.2351417155689
 30
0.0
 11
97.52119144048365
 21
161.2351417155689
 31
0.0
  0
LINE
  5
29E
330
1F
100
AcDbEntity
  8
9
  6
Continuous
 62
     7
370
    35
100
AcDbLine
 10
99.02119144048365
 20
163.5351417155689
 30
0.0
 11
99.02119144048365
 21
161.2351417155689
 31
0.0
  0
ARC
  5
29F
330
1F
100
AcDbEntity
  8
9
  6
Continuous
 62
     7
370
    35
100
AcDbCircle
 10
97.52119144048365
 20
177.7454470848149
 30
0.0
 40
4.0
100
AcDbArc
 50
274.999999999999
 51
0.0
  0
LINE
  5
2A0
330
1F
100
AcDbEntity
  8
9
  6
Continuous
 62
     7
370
    35
100
AcDbLine
 10
97.52119144048388
 20
177.5381439362909
 30
0.0
 11
97.52119144048388
 21
172.5381439362907
 31
0.0
  0
LINE
  5
2A1
330
1F
100
AcDbEntity
  8
9
  6
Continuous
 62
     7
370
    35
100
AcDbLine
 10
97.52119144048388
 20
173.7301677346415
 30
0.0
 11
97.86981441147427
 21
173.7606682924479
 31
0.0
  0
LINE
  5
2A2
330
1F
100
AcDbEntity
  8
9
  6
Continuous
 62
     7
370
    35
100
AcDbLine
 10
101.5211914404836
 20
181.2015715249417
 30
0.0
 11
101.5211914404836
 21
177.7454470848149
 31
0.0
  0
ARC
  5
2A3
330
1F
100
AcDbEntity
  8
9
  6
Continuous
 62
     7
370
    35
100
AcDbCircle
 10
82.02119144048365
 20
170.1466948774314
 30
0.0
 40
28.0
100
AcDbArc
 50
0.0
 51
22.02431283704267
  0
ARC
  5
2A4
330
1F
100
AcDbEntity
  8
9
  6
Continuous
 62
     7
370
    35
100
AcDbCircle
 10
82.02119144048365
 20
170.1466948774314
 30
0.0
 40
26.0
100
AcDbArc
 50
0.0
 51
23.81884139345785
  0
LINE
  5
2A5
330
1F
100
AcDbEntity
  8
9
  6
Continuous
 62
     7
370
    35
100
AcDbLine
 10
106.0211914404836
 20
168.4059692490784
 30
0.0
 11
106.0211914404836
 21
170.1466948774314
 31
0.0
  0
LINE
  5
2A6
330
1F
100
AcDbEntity
  8
9
  6
Continuous
 62
     7
370
    35
100
AcDbLine
 10
108.0211914404836
 20
168.4059692490782
 30
0.0
 11
108.0211914404836
 21
170.1466948774314
 31
0.0
  0
LINE
  5
2A7
330
1F
100
AcDbEntity
  8
9
  6
Continuous
 62
     7
370
    35
100
AcDbLine
 10
110.0211914404836
 20
168.4059692490782
 30
0.0
 11
110.0211914404836
 21
170.1466948774314
 31
0.0
  0
ARC
  5
2A8
330
1F
100
AcDbEntity
  8
9
  6
Continuous
 62
     7
370
    35
100
AcDbCircle
 10
103.3225876467978
 20
201.5851417155688
 30
0.0
 40
0.5999999999999943
100
AcDbArc
 50
57.77768193554963
 51
89.99999999999991
  0
ARC
  5
2A9
330
1F
100
AcDbEntity
  8
9
  6
Continuous
 62
     7
370
    35
100
AcDbCircle
 10
103.2607731790459
 20
201.885141715569
 30
0.0
 40
1.299999999999997
100
AcDbArc
 50
53.74353731478668
 51
89.99999999999991
  0
LINE
  5
2AA
330
1F
100
AcDbEntity
  8
9
  6
Continuous
 62
     7
370
    35
100
AcDbLine
 10
96.67119144048374
 20
186.3485322737433
 30
0.0
 11
96.52119144048365
 21
186.3485322737433
 31
0.0
  0
LINE
  5
2AB
330
1F
100
AcDbEntity
  8
9
  6
Continuous
 62
     7
370
    35
100
AcDbLine
 10
96.67119144048374
 20
183.3801677346416
 30
0.0
 11
96.67119144048374
 21
186.3485322737433
 31
0.0
  0
LINE
  5
2AC
330
1F
100
AcDbEntity
  8
9
  6
Continuous
 62
     7
370
    35
100
AcDbLine
 10
96.52119144048365
 20
183.3801677346416
 30
0.0
 11
96.67119144048374
 21
183.3801677346416
 31
0.0
  0
LINE
  5
2AD
330
1F
100
AcDbEntity
  8
9
  6
Continuous
 62
     7
370
    35
100
AcDbLine
 10
96.52119144048365
 20
182.6371634498837
 30
0.0
 11
96.52119144048365
 21
186.3485322737433
 31
0.0
  0
LINE
  5
2AE
330
1F
100
AcDbEntity
  8
9
  6
Continuous
 62
     7
370
    35
100
AcDbLine
 10
99.89619144048365
 20
201.274355277942
 30
0.0
 11
97.92553237418642
 21
201.274355277942
 31
0.0
  0
ARC
  5
2AF
330
1F
100
AcDbEntity
  8
9
  6
Continuous
 62
     7
370
    35
100
AcDbCircle
 10
99.66483851868551
 20
201.385141715569
 30
0.0
 40
0.7999999999999972
100
AcDbArc
 50
18.04996662058262
 51
89.99999999999991
  0
ARC
  5
2B0
330
1F
100
AcDbEntity
  8
9
  6
Continuous
 62
     7
370
    35
100
AcDbCircle
 10
99.59431735112375
 20
201.8851417155688
 30
0.0
 40
1.299999999999997
100
AcDbArc
 50
11.29895591576052
 51
89.99999999999991
  0
ARC
  5
2B1
330
1F
100
AcDbEntity
  8
9
  6
Continuous
 62
     7
370
    35
100
AcDbCircle
 10
99.38052373759282
 20
201.885141715569
 30
0.0
 40
1.299999999999997
100
AcDbArc
 50
89.99999999999991
 51
168.2422428527333
  0
LINE
  5
2B2
330
1F
100
AcDbEntity
  8
9
  6
Continuous
 62
     7
370
    35
100
AcDbLine
 10
97.78168560187495
 20
200.5832545655453
 30
0.0
 11
98.10780047680791
 21
202.1500483056304
 31
0.0
  0
LINE
  5
2B3
330
1F
100
AcDbEntity
  8
9
  6
Continuous
 62
     7
370
    35
100
AcDbLine
 10
96.62242511085887
 20
200.5138715010464
 30
0.0
 11
96.25279233706678
 21
201.5276821446141
 31
0.0
  0
LINE
  5
2B4
330
1F
100
AcDbEntity
  8
9
  6
Continuous
 62
     7
370
    35
100
AcDbLine
 10
96.80369262837584
 20
200.5784489073612
 30
0.0
 11
96.45770086681213
 21
202.1625430169085
 31
0.0
  0
ARC
  5
2B5
330
1F
100
AcDbEntity
  8
9
  6
Continuous
 62
     7
370
    35
100
AcDbCircle
 10
97.29217665541964
 20
200.685141715569
 30
0.0
 40
0.5
100
AcDbArc
 50
192.320832185877
 51
348.2422428527251
  0
ARC
  5
2B6
330
1F
100
AcDbEntity
  8
9
  6
Continuous
 62
     7
370
    35
100
AcDbCircle
 10
97.09217665541982
 20
200.685141715569
 30
0.0
 40
0.5
100
AcDbArc
 50
200.031726525286
 51
269.9999999999998
  0
LINE
  5
2B7
330
1F
100
AcDbEntity
  8
9
  6
Continuous
 62
     7
370
    35
100
AcDbLine
 10
97.09217665541982
 20
200.185141715569
 30
0.0
 11
97.29217665541964
 21
200.185141715569
 31
0.0
  0
LINE
  5
2B8
330
1F
100
AcDbEntity
  8
9
  6
Continuous
 62
     7
370
    35
100
AcDbLine
 10
99.66483851868551
 20
202.185141715569
 30
0.0
 11
98.11561267352553
 21
202.185141715569
 31
0.0
  0
LINE
  5
2B9
330
1F
100
AcDbEntity
  8
9
  6
Continuous
 62
     7
370
    35
100
AcDbLine
 10
99.59431735112375
 20
203.185141715569
 30
0.0
 11
99.38052373759282
 21
203.185141715569
 31
0.0
  0
ARC
  5
2BA
330
1F
100
AcDbEntity
  8
9
  6
Continuous
 62
     7
370
    35
100
AcDbCircle
 10
101.5876585916488
 20
200.5851417155688
 30
0.0
 40
0.4000000000000057
100
AcDbArc
 50
191.2989559157454
 51
349.5637783413146
  0
ARC
  5
2BB
330
1F
100
AcDbEntity
  8
9
  6
Continuous
 62
     7
370
    35
100
AcDbCircle
 10
99.89619144048365
 20
202.274355277942
 30
0.0
 40
1.0
100
AcDbArc
 50
269.9999999999998
 51
305.7788468264928
  0
LINE
  5
2BC
330
1F
100
AcDbEntity
  8
9
  6
Continuous
 62
     7
370
    35
100
AcDbLine
 10
100.4254678518892
 20
201.6330187364281
 30
0.0
 11
100.8073439250471
 21
200.4612032051391
 31
0.0
  0
LINE
  5
2BD
330
1F
100
AcDbEntity
  8
9
  6
Continuous
 62
     7
370
    35
100
AcDbLine
 10
101.1954113000275
 20
200.5067704056664
 30
0.0
 11
100.8691210488929
 21
202.1398484727513
 31
0.0
  0
LINE
  5
2BE
330
1F
100
AcDbEntity
  8
9
  6
Continuous
 62
     7
370
    35
100
AcDbLine
 10
101.187658591649
 20
200.185141715569
 30
0.0
 11
101.5876585916488
 21
200.185141715569
 31
0.0
  0
ARC
  5
2BF
330
1F
100
AcDbEntity
  8
9
  6
Continuous
 62
     7
370
    35
100
AcDbCircle
 10
101.187658591649
 20
200.5851417155688
 30
0.0
 40
0.4000000000000057
100
AcDbArc
 50
198.0499666205823
 51
269.9999999999998
  0
LINE
  5
2C0
330
1F
100
AcDbEntity
  8
9
  6
Continuous
 62
     7
370
    35
100
AcDbLine
 10
103.3225876467978
 20
202.185141715569
 30
0.0
 11
102.2883523956017
 21
202.185141715569
 31
0.0
  0
LINE
  5
2C1
330
1F
100
AcDbEntity
  8
9
  6
Continuous
 62
     7
370
    35
100
AcDbLine
 10
103.2607731790459
 20
203.185141715569
 30
0.0
 11
102.3955601112435
 21
203.185141715569
 31
0.0
  0
LINE
  5
2C2
330
1F
100
AcDbEntity
  8
9
  6
Continuous
 62
     7
370
    35
100
AcDbLine
 10
101.981041452601
 20
200.5126853513948
 30
0.0
 11
102.2731350157192
 21
202.0985308852564
 31
0.0
  0
ARC
  5
2C3
330
1F
100
AcDbEntity
  8
9
  6
Continuous
 62
     7
370
    35
100
AcDbCircle
 10
94.25237768796669
 20
203.5524069540749
 30
0.0
 40
8.151460220977583
100
AcDbArc
 50
349.725882271614
 51
357.4176560501103
  0
LINE
  5
2C4
330
1F
100
AcDbEntity
  8
9
  6
Continuous
 62
     7
370
    35
100
AcDbLine
 10
106.7749025581976
 20
200.185141715569
 30
0.0
 11
107.5749025581973
 21
200.185141715569
 31
0.0
  0
ARC
  5
2C5
330
1F
100
AcDbEntity
  8
9
  6
Continuous
 62
     7
370
    35
100
AcDbCircle
 10
105.9334242353478
 20
201.885141715569
 30
0.0
 40
1.299999999999997
100
AcDbArc
 50
5.157213474818977
 51
89.99999999999991
  0
LINE
  5
2C6
330
1F
100
AcDbEntity
  8
9
  6
Continuous
 62
     7
370
    35
100
AcDbLine
 10
107.3757121977506
 20
200.3671639430397
 30
0.0
 11
107.2281615782514
 21
202.0019972370089
 31
0.0
  0
ARC
  5
2C7
330
1F
100
AcDbEntity
  8
9
  6
Continuous
 62
     7
370
    35
100
AcDbCircle
 10
105.5900383615927
 20
201.2198659884839
 30
0.0
 40
0.2999999999999972
100
AcDbArc
 50
237.7776819355423
 51
314.999999999992
  0
LINE
  5
2C8
330
1F
100
AcDbEntity
  8
9
  6
Continuous
 62
     7
370
    35
100
AcDbLine
 10
106.0236300028563
 20
201.4709994090269
 30
0.0
 11
104.0295939689657
 21
202.93343298854
 31
0.0
  0
LINE
  5
2C9
330
1F
100
AcDbEntity
  8
9
  6
Continuous
 62
     7
370
    35
100
AcDbLine
 10
105.2844279757852
 20
203.0752062243994
 30
0.0
 11
106.2965157386026
 21
201.7491538940482
 31
0.0
  0
LINE
  5
2CA
330
1F
100
AcDbEntity
  8
9
  6
Continuous
 62
     7
370
    35
100
AcDbLine
 10
105.9334242353478
 20
203.185141715569
 30
0.0
 11
105.1766360066996
 21
203.185141715569
 31
0.0
  0
ARC
  5
2CB
330
1F
100
AcDbEntity
  8
9
  6
Continuous
 62
     7
370
    35
100
AcDbCircle
 10
104.2703839444544
 20
202.1887468887375
 30
0.0
 40
1.34688360716865
100
AcDbArc
 50
41.15937921291653
 51
47.71250584115533
  0
LINE
  5
2CC
330
1F
100
AcDbEntity
  8
9
  6
Continuous
 62
     7
370
    35
100
AcDbLine
 10
103.6425111555587
 20
202.0927330359661
 30
0.0
 11
105.430076607212
 21
200.9660703282854
 31
0.0
  0
ARC
  5
2CD
330
1F
100
AcDbEntity
  8
9
  6
Continuous
 62
     7
370
    35
100
AcDbCircle
 10
106.1433869661301
 20
201.6264464949106
 30
0.0
 40
0.1962282516922187
100
AcDbArc
 50
232.3892216438179
 51
38.70640762797753
  0
LINE
  5
2CE
330
1F
100
AcDbEntity
  8
9
  6
Continuous
 62
     7
370
    35
100
AcDbLine
 10
106.4403641816531
 20
201.8221899779632
 30
0.0
 11
106.5757622645266
 21
200.3666175843716
 31
0.0
  0
LINE
  5
2CF
330
1F
100
AcDbEntity
  8
9
  6
Continuous
 62
     7
370
    35
100
AcDbLine
 10
105.8021703959488
 20
201.0077339541278
 30
0.0
 11
106.2850592833136
 21
201.4906228414929
 31
0.0
  0
ARC
  5
2D0
330
1F
100
AcDbEntity
  8
9
  6
Continuous
 62
     7
370
    35
100
AcDbCircle
 10
106.7749025581976
 20
200.3851417155688
 30
0.0
 40
0.2000000000000028
100
AcDbArc
 50
185.3143895586572
 51
269.9999999999998
  0
LINE
  5
2D1
330
1F
100
AcDbEntity
  8
9
  6
Continuous
 62
     7
370
    35
100
AcDbLine
 10
106.042083594311
 20
202.185141715569
 30
0.0
 11
105.9637551613624
 21
202.185141715569
 31
0.0
  0
ARC
  5
2D2
330
1F
100
AcDbEntity
  8
9
  6
Continuous
 62
     7
370
    35
100
AcDbCircle
 10
106.042083594311
 20
201.7851417155689
 30
0.0
 40
0.4000000000000057
100
AcDbArc
 50
5.314389558658381
 51
89.99999999999991
  0
LINE
  5
2D3
330
1F
100
AcDbEntity
  8
9
  6
Continuous
 62
     7
370
    35
100
AcDbLine
 10
109.7107472697345
 20
201.4923653794035
 30
0.0
 11
108.3288312640719
 21
202.8219479004913
 31
0.0
  0
LINE
  5
2D4
330
1F
100
AcDbEntity
  8
9
  6
Continuous
 62
     7
370
    35
100
AcDbLine
 10
110.1388733633506
 20
201.7817991222314
 30
0.0
 11
108.874744831077
 21
203.0443503730228
 31
0.0
  0
ARC
  5
2D5
330
1F
100
AcDbEntity
  8
9
  6
Continuous
 62
     7
370
    35
100
AcDbCircle
 10
109.235515815411
 20
201.0198629305293
 30
0.0
 40
0.0999999999999943
100
AcDbArc
 50
225.896157277592
 51
314.9999999999536
  0
LINE
  5
2D6
330
1F
100
AcDbEntity
  8
9
  6
Continuous
 62
     7
370
    35
100
AcDbLine
 10
109.1659197195675
 20
200.9480549682737
 30
0.0
 11
107.8964178672287
 21
202.1694804864973
 31
0.0
  0
ARC
  5
2D7
330
1F
100
AcDbEntity
  8
9
  6
Continuous
 62
     7
370
    35
100
AcDbCircle
 10
107.4275021499899
 20
201.885141715569
 30
0.0
 40
1.299999999999997
100
AcDbArc
 50
46.1057042895184
 51
89.99999999999991
  0
ARC
  5
2D8
330
1F
100
AcDbEntity
  8
9
  6
Continuous
 62
     7
370
    35
100
AcDbCircle
 10
108.5211914404836
 20
202.6907969824294
 30
0.0
 40
0.5
100
AcDbArc
 50
45.0
 51
83.00000000000733
  0
LINE
  5
2D9
330
1F
100
AcDbEntity
  8
9
  6
Continuous
 62
     7
370
    35
100
AcDbLine
 10
107.8927098312375
 20
202.0985308852555
 30
0.0
 11
107.7744352030075
 21
200.3714770291428
 31
0.0
  0
LINE
  5
2DA
330
1F
100
AcDbEntity
  8
9
  6
Continuous
 62
     7
370
    35
100
AcDbLine
 10
107.7583148081338
 20
200.3053924423861
 30
0.0
 11
107.7586560382166
 21
200.2835776898307
 31
0.0
  0
ARC
  5
2DB
330
1F
100
AcDbEntity
  8
9
  6
Continuous
 62
     7
370
    35
100
AcDbCircle
 10
107.5749025581973
 20
200.3851417155688
 30
0.0
 40
0.2000000000000028
100
AcDbArc
 50
185.1572134748481
 51
356.082303628571
  0
ARC
  5
2DC
330
1F
100
AcDbEntity
  8
9
  6
Continuous
 62
     7
370
    35
100
AcDbCircle
 10
106.6522254721395
 20
202.1989339636334
 30
0.0
 40
1.24454096891742
100
AcDbArc
 50
355.3726464066835
 51
52.41289174619488
  0
LINE
  5
2DD
330
1F
100
AcDbEntity
  8
9
  6
Continuous
 62
     7
370
    35
100
AcDbLine
 10
109.3062264935296
 20
200.9491522524108
 30
0.0
 11
110.0589131915613
 21
201.7018389504419
 31
0.0
  0
ARC
  5
2DE
330
1F
100
AcDbEntity
  8
9
  6
Continuous
 62
     7
370
    35
100
AcDbCircle
 10
109.7800802785101
 20
201.5644273936282
 30
0.0
 40
0.0999999999999943
100
AcDbArc
 50
226.1057042894905
 51
314.9999999999536
  0
LINE
  5
2DF
330
1F
100
AcDbEntity
  8
9
  6
Continuous
 62
     7
370
    35
100
AcDbLine
 10
109.3062264935298
 20
200.9491522524108
 30
0.0
 11
110.1388733633506
 21
201.7817991222314
 31
0.0
  0
LINE
  5
2E0
330
1F
100
AcDbEntity
  8
9
  6
Continuous
 62
     7
370
    35
100
AcDbLine
 10
112.0211914404836
 20
168.4059692490782
 30
0.0
 11
112.0211914404836
 21
170.1466948774314
 31
0.0
  0
LINE
  5
2E1
330
1F
100
AcDbEntity
  8
9
  6
Continuous
 62
     7
370
    35
100
AcDbLine
 10
90.02119144048365
 20
203.9851417155689
 30
0.0
 11
102.1430607838889
 21
203.9776878672103
 31
0.0
  0
LINE
  5
2E2
330
1F
100
AcDbEntity
  8
9
  6
Continuous
 62
     7
370
    35
100
AcDbLine
 10
82.27119144048365
 20
203.9851417155689
 30
0.0
 11
77.89932209707862
 21
203.9776878672103
 31
0.0
  0
LINE
  5
2E3
330
1F
100
AcDbEntity
  8
9
  6
Continuous
 62
     7
370
    35
100
AcDbLine
 10
82.27119144048365
 20
203.9851417155689
 30
0.0
 11
90.02119144048365
 21
203.9851417155689
 31
0.0
  0
LINE
  5
2E4
330
1F
100
AcDbEntity
  8
9
  6
Continuous
 62
     7
370
    35
100
AcDbLine
 10
289.5821253881864
 20
203.1870700582501
 30
0.0
 11
283.143060059889
 21
203.9776878672103
 31
0.0
  0
LINE
  5
2E5
330
1F
100
AcDbEntity
  8
9
  6
Continuous
 62
     7
370
    35
100
AcDbLine
 10
252.4602560447814
 20
203.1870700582501
 30
0.0
 11
258.8993213730787
 21
203.9776878672103
 31
0.0
  0
LINE
  5
2E6
330
1F
100
AcDbEntity
  8
9
  6
Continuous
 62
     7
370
    35
100
AcDbLine
 10
277.3451539422634
 20
201.274355277942
 30
0.0
 11
274.2087579987956
 21
201.274355277942
 31
0.0
  0
LINE
  5
2E7
330
1F
100
AcDbEntity
  8
9
  6
Continuous
 62
     7
370
    35
100
AcDbLine
 10
260.7431364885716
 20
138.1840234769904
 30
0.0
 11
281.2992449443962
 21
138.1840234769904
 31
0.0
  0
ARC
  5
2E8
330
1F
100
AcDbEntity
  8
9
  6
Continuous
 62
     7
370
    35
100
AcDbCircle
 10
276.313288523945
 20
201.185141715569
 30
0.0
 40
1.0
100
AcDbArc
 50
20.03172652528637
 51
89.99999999999991
  0
ARC
  5
2E9
330
1F
100
AcDbEntity
  8
9
  6
Continuous
 62
     7
370
    35
100
AcDbCircle
 10
276.1876416724984
 20
201.885141715569
 30
0.0
 40
1.299999999999997
100
AcDbArc
 50
12.32083218587515
 51
89.99999999999991
  0
LINE
  5
2EA
330
1F
100
AcDbEntity
  8
9
  6
Continuous
 62
     7
370
    35
100
AcDbLine
 10
281.765753363022
 20
152.4059692490782
 30
0.0
 11
275.5821286158619
 21
152.4059692490782
 31
0.0
  0
LINE
  5
2EB
330
1F
100
AcDbEntity
  8
9
  6
Continuous
 62
     7
370
    35
100
AcDbLine
 10
279.3522417271404
 20
156.435141715569
 30
0.0
 11
272.5211907164838
 21
156.435141715569
 31
0.0
  0
LINE
  5
2EC
330
1F
100
AcDbEntity
  8
9
  6
Continuous
 62
     7
370
    35
100
AcDbLine
 10
260.357676362158
 20
150.5181311309695
 30
0.0
 11
281.6847050708096
 21
150.5181311309695
 31
0.0
  0
LINE
  5
2ED
330
1F
100
AcDbEntity
  8
9
  6
Continuous
 62
     7
370
    35
100
AcDbLine
 10
262.5211907164838
 20
136.4059692490782
 30
0.0
 11
279.5211907164838
 21
136.4059692490782
 31
0.0
  0
LINE
  5
2EE
330
1F
100
AcDbEntity
  8
9
  6
Continuous
 62
     7
370
    35
100
AcDbLine
 10
285.9286156745896
 20
189.5180624540571
 30
0.0
 11
276.2576098845469
 21
200.9544176070162
 31
0.0
  0
ARC
  5
2EF
330
1F
100
AcDbEntity
  8
9
  6
Continuous
 62
     7
370
    35
100
AcDbCircle
 10
263.0211907164838
 20
170.1466948774314
 30
0.0
 40
24.0
100
AcDbArc
 50
0.0
 51
57.90299399630451
  0
LINE
  5
2F0
330
1F
100
AcDbEntity
  8
9
  6
Continuous
 62
     7
370
    35
100
AcDbLine
 10
261.5211907164838
 20
150.9059692490782
 30
0.0
 11
280.5211907164838
 21
150.9059692490782
 31
0.0
  0
ARC
  5
2F1
330
1F
100
AcDbEntity
  8
9
  6
Continuous
 62
     7
370
    35
100
AcDbCircle
 10
266.0211907164838
 20
168.4059692490782
 30
0.0
 40
17.0
100
AcDbArc
 50
179.9999999999998
 51
250.250077204358
  0
ARC
  5
2F2
330
1F
100
AcDbEntity
  8
9
  6
Continuous
 62
     7
370
    35
100
AcDbCircle
 10
263.7543389720543
 20
168.9822733028065
 30
0.0
 40
10.74860911180585
100
AcDbArc
 50
183.0734796207524
 51
269.0499776435815
  0
ARC
  5
2F3
330
1F
100
AcDbEntity
  8
9
  6
Continuous
 62
     7
370
    35
100
AcDbCircle
 10
266.0211907164838
 20
168.4059692490782
 30
0.0
 40
15.0
100
AcDbArc
 50
179.9999999999998
 51
233.3170111996315
  0
ARC
  5
2F4
330
1F
100
AcDbEntity
  8
9
  6
Continuous
 62
     7
370
    35
100
AcDbCircle
 10
265.9604957641598
 20
169.5599211865067
 30
0.0
 40
11.0
100
AcDbArc
 50
186.021677192627
 51
245.4807912689772
  0
LINE
  5
2F5
330
1F
100
AcDbEntity
  8
9
  6
Continuous
 62
     7
370
    35
100
AcDbLine
 10
260.2766280699457
 20
152.4059692490782
 30
0.0
 11
266.4602528171061
 21
152.4059692490782
 31
0.0
  0
LINE
  5
2F6
330
1F
100
AcDbEntity
  8
9
  6
Continuous
 62
     7
370
    35
100
AcDbLine
 10
262.5211907164838
 20
136.4059692490782
 30
0.0
 11
260.7431364885716
 21
138.1840234769904
 31
0.0
  0
ARC
  5
2F7
330
1F
100
AcDbEntity
  8
9
  6
Continuous
 62
     7
370
    35
100
AcDbCircle
 10
257.1334421848154
 20
149.2628519207019
 30
0.0
 40
6.498907295833106
100
AcDbArc
 50
39.10096087449873
 51
75.3209199477989
  0
LINE
  5
2F8
330
1F
100
AcDbEntity
  8
9
  6
Continuous
 62
     7
370
    35
100
AcDbLine
 10
261.7275132167818
 20
159.4797348331205
 30
0.0
 11
262.720637790442
 21
159.4797348331203
 31
0.0
  0
LINE
  5
2F9
330
1F
100
AcDbEntity
  8
8
  6
Continuous
 62
     4
370
    25
100
AcDbLine
 10
261.9426222932096
 20
136.9845376723526
 30
0.0
 11
261.5076963882237
 21
150.9014711396582
 31
0.0
  0
LINE
  5
2FA
330
1F
100
AcDbEntity
  8
9
  6
Continuous
 62
     7
370
    35
100
AcDbLine
 10
260.357676362158
 20
150.5181311309695
 30
0.0
 11
260.7431364885716
 21
138.1840234769904
 31
0.0
  0
ARC
  5
2FB
330
1F
100
AcDbEntity
  8
9
  6
Continuous
 62
     7
370
    35
100
AcDbCircle
 10
260.0473199935591
 20
160.3864388023637
 30
0.0
 40
5.0
100
AcDbArc
 50
233.3170111996311
 51
255.3209199477982
  0
LINE
  5
2FC
330
1F
100
AcDbEntity
  8
9
  6
Continuous
 62
     7
370
    35
100
AcDbLine
 10
260.357676362158
 20
150.5181311309695
 30
0.0
 11
261.5211907164838
 21
150.9059692490782
 31
0.0
  0
LINE
  5
2FD
330
1F
100
AcDbEntity
  8
9
  6
Continuous
 62
     7
370
    35
100
AcDbLine
 10
261.5211907164838
 20
152.4059692490782
 30
0.0
 11
261.5211907164838
 21
150.9059692490782
 31
0.0
  0
ARC
  5
2FE
330
1F
100
AcDbEntity
  8
9
  6
Continuous
 62
     7
370
    35
100
AcDbCircle
 10
261.7275132167818
 20
160.2797348331205
 30
0.0
 40
0.7999999999999972
100
AcDbArc
 50
245.4807912689751
 51
269.9999999999874
  0
LINE
  5
2FF
330
1F
100
AcDbEntity
  8
9
  6
Continuous
 62
     7
370
    35
100
AcDbLine
 10
262.6901397058273
 20
156.435141715569
 30
0.0
 11
269.5211907164838
 21
156.435141715569
 31
0.0
  0
LINE
  5
300
330
1F
100
AcDbEntity
  8
9
  6
Continuous
 62
     7
370
    35
100
AcDbLine
 10
263.5211907164838
 20
158.2351417155648
 30
0.0
 11
269.5211907164838
 21
158.2351417155648
 31
0.0
  0
LINE
  5
301
330
1F
100
AcDbEntity
  8
9
  6
Continuous
 62
     7
370
    35
100
AcDbLine
 10
262.6901397058273
 20
152.4059692490782
 30
0.0
 11
262.6901397058273
 21
156.435141715569
 31
0.0
  0
LINE
  5
302
330
1F
100
AcDbEntity
  8
9
  6
Continuous
 62
     7
370
    35
100
AcDbLine
 10
263.576124256322
 20
156.4059692490782
 30
0.0
 11
263.576124256322
 21
158.2351417155648
 31
0.0
  0
LINE
  5
303
330
1F
100
AcDbEntity
  8
9
  6
Continuous
 62
     7
370
    35
100
AcDbLine
 10
266.4602528171061
 20
152.4059692490782
 30
0.0
 11
266.4602528171059
 21
156.4059692490782
 31
0.0
  0
LINE
  5
304
330
1F
100
AcDbEntity
  8
9
  6
Continuous
 62
     7
370
    35
100
AcDbLine
 10
266.4602528171061
 20
152.4059692490782
 30
0.0
 11
266.4602528171061
 21
150.9059692490782
 31
0.0
  0
LINE
  5
305
330
1F
100
AcDbEntity
  8
9
  6
Continuous
 62
     7
370
    35
100
AcDbLine
 10
269.5211907164838
 20
156.435141715569
 30
0.0
 11
269.5211907164838
 21
158.2059692490784
 31
0.0
  0
LINE
  5
306
330
1F
100
AcDbEntity
  8
9
  6
Continuous
 62
     7
370
    35
100
AcDbLine
 10
272.5211907164838
 20
156.435141715569
 30
0.0
 11
272.5211907164838
 21
158.2059692490784
 31
0.0
  0
LINE
  5
307
330
1F
100
AcDbEntity
  8
9
  6
Continuous
 62
     7
370
    35
100
AcDbLine
 10
275.5821286158619
 20
152.4059692490782
 30
0.0
 11
275.5821286158619
 21
156.4059692490782
 31
0.0
  0
LINE
  5
308
330
1F
100
AcDbEntity
  8
9
  6
Continuous
 62
     7
370
    35
100
AcDbLine
 10
275.5821286158619
 20
152.4059692490782
 30
0.0
 11
275.5821286158619
 21
150.9059692490782
 31
0.0
  0
LINE
  5
309
330
1F
100
AcDbEntity
  8
9
  6
Continuous
 62
     7
370
    35
100
AcDbLine
 10
261.1461907164838
 20
201.274355277942
 30
0.0
 11
263.116849782781
 21
201.274355277942
 31
0.0
  0
ARC
  5
30A
330
1F
100
AcDbEntity
  8
9
  6
Continuous
 62
     7
370
    35
100
AcDbCircle
 10
261.6618584193751
 20
201.885141715569
 30
0.0
 40
1.299999999999997
100
AcDbArc
 50
11.75775714726663
 51
89.99999999999991
  0
LINE
  5
30B
330
1F
100
AcDbEntity
  8
9
  6
Continuous
 62
     7
370
    35
100
AcDbLine
 10
261.3775436382821
 20
202.185141715569
 30
0.0
 11
262.9267694834423
 21
202.185141715569
 31
0.0
  0
LINE
  5
30C
330
1F
100
AcDbEntity
  8
9
  6
Continuous
 62
     7
370
    35
100
AcDbLine
 10
256.113765758378
 20
189.5180624540571
 30
0.0
 11
265.7847715484207
 21
200.9544176070162
 31
0.0
  0
ARC
  5
30D
330
1F
100
AcDbEntity
  8
9
  6
Continuous
 62
     7
370
    35
100
AcDbCircle
 10
279.0211907164838
 20
170.1466948774314
 30
0.0
 40
24.0
100
AcDbArc
 50
122.0970060036955
 51
179.9999999999998
  0
ARC
  5
30E
330
1F
100
AcDbEntity
  8
9
  6
Continuous
 62
     7
370
    35
100
AcDbCircle
 10
279.0211907164838
 20
170.1466948774314
 30
0.0
 40
30.0
100
AcDbArc
 50
139.7809012554455
 51
179.9999999999998
  0
ARC
  5
30F
330
1F
100
AcDbEntity
  8
9
  6
Continuous
 62
     7
370
    35
100
AcDbCircle
 10
279.0211907164838
 20
170.1466948774314
 30
0.0
 40
26.0
100
AcDbArc
 50
156.1811586065422
 51
179.9999999999998
  0
ARC
  5
310
330
1F
100
AcDbEntity
  8
9
  6
Continuous
 62
     7
370
    35
100
AcDbCircle
 10
279.0211907164838
 20
170.1466948774314
 30
0.0
 40
28.0
100
AcDbArc
 50
157.9756871629579
 51
179.9999999999998
  0
LINE
  5
311
330
1F
100
AcDbEntity
  8
9
  6
Continuous
 62
     7
370
    35
100
AcDbLine
 10
249.0211907164838
 20
168.4059692490782
 30
0.0
 11
249.0211907164838
 21
170.1466948774314
 31
0.0
  0
LINE
  5
312
330
1F
100
AcDbEntity
  8
9
  6
Continuous
 62
     7
370
    35
100
AcDbLine
 10
251.0211907164838
 20
168.4059692490782
 30
0.0
 11
251.0211907164838
 21
170.1466948774314
 31
0.0
  0
LINE
  5
313
330
1F
100
AcDbEntity
  8
9
  6
Continuous
 62
     7
370
    35
100
AcDbLine
 10
253.0211907164838
 20
168.4059692490782
 30
0.0
 11
253.0211907164838
 21
170.1466948774314
 31
0.0
  0
LINE
  5
314
330
1F
100
AcDbEntity
  8
9
  6
Continuous
 62
     7
370
    35
100
AcDbLine
 10
255.0211907164838
 20
168.4059692490784
 30
0.0
 11
255.0211907164838
 21
170.1466948774314
 31
0.0
  0
LINE
  5
315
330
1F
100
AcDbEntity
  8
9
  6
Continuous
 62
     7
370
    35
100
AcDbLine
 10
254.6020179753144
 20
201.8221899779632
 30
0.0
 11
254.4666198924413
 21
200.3666175843716
 31
0.0
  0
ARC
  5
316
330
1F
100
AcDbEntity
  8
9
  6
Continuous
 62
     7
370
    35
100
AcDbCircle
 10
255.1089579216198
 20
201.885141715569
 30
0.0
 40
1.299999999999997
100
AcDbArc
 50
89.99999999999991
 51
174.8427865251811
  0
LINE
  5
317
330
1F
100
AcDbEntity
  8
9
  6
Continuous
 62
     7
370
    35
100
AcDbLine
 10
251.331634887233
 20
201.4923653794035
 30
0.0
 11
252.7135508928955
 21
202.8219479004913
 31
0.0
  0
LINE
  5
318
330
1F
100
AcDbEntity
  8
9
  6
Continuous
 62
     7
370
    35
100
AcDbLine
 10
251.8764624373999
 20
200.9480549682737
 30
0.0
 11
253.1459642897387
 21
202.1694804864973
 31
0.0
  0
LINE
  5
319
330
1F
100
AcDbEntity
  8
9
  6
Continuous
 62
     7
370
    35
100
AcDbLine
 10
251.7361556634378
 20
200.9491522524108
 30
0.0
 11
250.9834689654061
 21
201.7018389504419
 31
0.0
  0
LINE
  5
31A
330
1F
100
AcDbEntity
  8
9
  6
Continuous
 62
     7
370
    35
100
AcDbLine
 10
250.9035087936168
 20
201.7817991222314
 30
0.0
 11
252.1676373258904
 21
203.0443503730228
 31
0.0
  0
ARC
  5
31B
330
1F
100
AcDbEntity
  8
9
  6
Continuous
 62
     7
370
    35
100
AcDbCircle
 10
251.2623018784573
 20
201.5644273936282
 30
0.0
 40
0.1000000000000014
100
AcDbArc
 50
225.0000000000457
 51
313.8942957105205
  0
LINE
  5
31C
330
1F
100
AcDbEntity
  8
9
  6
Continuous
 62
     7
370
    35
100
AcDbLine
 10
251.7361556634376
 20
200.9491522524108
 30
0.0
 11
250.9035087936168
 21
201.7817991222314
 31
0.0
  0
ARC
  5
31D
330
1F
100
AcDbEntity
  8
9
  6
Continuous
 62
     7
370
    35
100
AcDbCircle
 10
251.8068663415564
 20
201.0198629305293
 30
0.0
 40
0.1000000000000014
100
AcDbArc
 50
225.0000000000457
 51
314.1038427224073
  0
ARC
  5
31E
330
1F
100
AcDbEntity
  8
9
  6
Continuous
 62
     7
370
    35
100
AcDbCircle
 10
252.5211907164838
 20
202.6907969824294
 30
0.0
 40
0.5
100
AcDbArc
 50
96.99999999999268
 51
135.0
  0
ARC
  5
31F
330
1F
100
AcDbEntity
  8
9
  6
Continuous
 62
     7
370
    35
100
AcDbCircle
 10
253.6148800069776
 20
201.885141715569
 30
0.0
 40
1.299999999999997
100
AcDbArc
 50
89.99999999999991
 51
133.8942957104825
  0
ARC
  5
320
330
1F
100
AcDbEntity
  8
9
  6
Continuous
 62
     7
370
    35
100
AcDbCircle
 10
254.3901566848279
 20
202.1989339636334
 30
0.0
 40
1.24454096891742
100
AcDbArc
 50
127.5871082538051
 51
184.6273535933158
  0
ARC
  5
321
330
1F
100
AcDbEntity
  8
9
  6
Continuous
 62
     7
370
    35
100
AcDbCircle
 10
254.2674795987703
 20
200.3851417155688
 30
0.0
 40
0.2000000000000028
100
AcDbArc
 50
269.9999999999998
 51
354.6856104413413
  0
LINE
  5
322
330
1F
100
AcDbEntity
  8
9
  6
Continuous
 62
     7
370
    35
100
AcDbLine
 10
253.6666699592168
 20
200.3671639430397
 30
0.0
 11
253.8142205787163
 21
202.0019972370089
 31
0.0
  0
LINE
  5
323
330
1F
100
AcDbEntity
  8
9
  6
Continuous
 62
     7
370
    35
100
AcDbLine
 10
253.1496723257304
 20
202.0985308852555
 30
0.0
 11
253.2679469539601
 21
200.3714770291428
 31
0.0
  0
ARC
  5
324
330
1F
100
AcDbEntity
  8
9
  6
Continuous
 62
     7
370
    35
100
AcDbCircle
 10
253.4674795987701
 20
200.3851417155688
 30
0.0
 40
0.2000000000000028
100
AcDbArc
 50
183.9176963714283
 51
354.8427865251504
  0
ARC
  5
325
330
1F
100
AcDbEntity
  8
9
  6
Continuous
 62
     7
370
    35
100
AcDbCircle
 10
254.3901566848281
 20
202.1989339636334
 30
0.0
 40
1.24454096891742
100
AcDbArc
 50
127.5871082537633
 51
184.6273535933158
  0
LINE
  5
326
330
1F
100
AcDbEntity
  8
9
  6
Continuous
 62
     7
370
    35
100
AcDbLine
 10
254.2674795987703
 20
200.185141715569
 30
0.0
 11
253.4674795987701
 21
200.185141715569
 31
0.0
  0
LINE
  5
327
330
1F
100
AcDbEntity
  8
9
  6
Continuous
 62
     7
370
    35
100
AcDbLine
 10
257.7816089779217
 20
203.185141715569
 30
0.0
 11
258.6468220457244
 21
203.185141715569
 31
0.0
  0
LINE
  5
328
330
1F
100
AcDbEntity
  8
9
  6
Continuous
 62
     7
370
    35
100
AcDbLine
 10
257.7197945101698
 20
202.185141715569
 30
0.0
 11
258.754029761366
 21
202.185141715569
 31
0.0
  0
LINE
  5
329
330
1F
100
AcDbEntity
  8
9
  6
Continuous
 62
     7
370
    35
100
AcDbLine
 10
257.3998710014087
 20
202.0927330359661
 30
0.0
 11
255.6123055497554
 21
200.9660703282854
 31
0.0
  0
LINE
  5
32A
330
1F
100
AcDbEntity
  8
9
  6
Continuous
 62
     7
370
    35
100
AcDbLine
 10
255.0187521541112
 20
201.4709994090269
 30
0.0
 11
257.0127881880017
 21
202.93343298854
 31
0.0
  0
ARC
  5
32B
330
1F
100
AcDbEntity
  8
9
  6
Continuous
 62
     7
370
    35
100
AcDbCircle
 10
255.4523437953747
 20
201.2198659884839
 30
0.0
 40
0.2999999999999972
100
AcDbArc
 50
225.0000000000073
 51
302.2223180644616
  0
ARC
  5
32C
330
1F
100
AcDbEntity
  8
9
  6
Continuous
 62
     7
370
    35
100
AcDbCircle
 10
254.8989951908373
 20
201.6264464949106
 30
0.0
 40
0.1962282516922187
100
AcDbArc
 50
141.2935923720225
 51
307.6107783561815
  0
ARC
  5
32D
330
1F
100
AcDbEntity
  8
9
  6
Continuous
 62
     7
370
    35
100
AcDbCircle
 10
256.771998212513
 20
202.1887468887375
 30
0.0
 40
1.34688360716865
100
AcDbArc
 50
132.2874941588447
 51
138.8406207870827
  0
LINE
  5
32E
330
1F
100
AcDbEntity
  8
9
  6
Continuous
 62
     7
370
    35
100
AcDbLine
 10
255.7579541811822
 20
203.0752062243994
 30
0.0
 11
254.7458664183649
 21
201.7491538940482
 31
0.0
  0
LINE
  5
32F
330
1F
100
AcDbEntity
  8
9
  6
Continuous
 62
     7
370
    35
100
AcDbLine
 10
255.2402117610187
 20
201.0077339541278
 30
0.0
 11
254.7573228736538
 21
201.4906228414929
 31
0.0
  0
LINE
  5
330
330
1F
100
AcDbEntity
  8
9
  6
Continuous
 62
     7
370
    35
100
AcDbLine
 10
255.1089579216198
 20
203.185141715569
 30
0.0
 11
255.8657461502683
 21
203.185141715569
 31
0.0
  0
ARC
  5
331
330
1F
100
AcDbEntity
  8
9
  6
Continuous
 62
     7
370
    35
100
AcDbCircle
 10
255.0002985626566
 20
201.7851417155689
 30
0.0
 40
0.3999999999999986
100
AcDbArc
 50
89.99999999999991
 51
174.6856104413416
  0
LINE
  5
332
330
1F
100
AcDbEntity
  8
9
  6
Continuous
 62
     7
370
    35
100
AcDbLine
 10
255.0002985626566
 20
202.185141715569
 30
0.0
 11
255.078626995605
 21
202.185141715569
 31
0.0
  0
ARC
  5
333
330
1F
100
AcDbEntity
  8
9
  6
Continuous
 62
     7
370
    35
100
AcDbCircle
 10
257.7197945101696
 20
201.5851417155688
 30
0.0
 40
0.6000000000000014
100
AcDbArc
 50
89.99999999999991
 51
122.2223180644504
  0
ARC
  5
334
330
1F
100
AcDbEntity
  8
9
  6
Continuous
 62
     7
370
    35
100
AcDbCircle
 10
257.7816089779215
 20
201.885141715569
 30
0.0
 40
1.299999999999997
100
AcDbArc
 50
89.99999999999991
 51
126.2564626852133
  0
ARC
  5
335
330
1F
100
AcDbEntity
  8
9
  6
Continuous
 62
     7
370
    35
100
AcDbCircle
 10
261.4480648058441
 20
201.8851417155688
 30
0.0
 40
1.299999999999997
100
AcDbArc
 50
89.99999999999991
 51
168.7010440842397
  0
LINE
  5
336
330
1F
100
AcDbEntity
  8
9
  6
Continuous
 62
     7
370
    35
100
AcDbLine
 10
259.8469708569403
 20
200.5067704056664
 30
0.0
 11
260.173261108075
 21
202.1398484727513
 31
0.0
  0
ARC
  5
337
330
1F
100
AcDbEntity
  8
9
  6
Continuous
 62
     7
370
    35
100
AcDbCircle
 10
259.8547235653189
 20
200.5851417155688
 30
0.0
 40
0.3999999999999986
100
AcDbArc
 50
269.9999999999998
 51
341.9500333794183
  0
LINE
  5
338
330
1F
100
AcDbEntity
  8
9
  6
Continuous
 62
     7
370
    35
100
AcDbLine
 10
259.0613407043668
 20
200.5126853513948
 30
0.0
 11
258.7692471412486
 21
202.0985308852564
 31
0.0
  0
ARC
  5
339
330
1F
100
AcDbEntity
  8
9
  6
Continuous
 62
     7
370
    35
100
AcDbCircle
 10
259.4547235653188
 20
200.5851417155688
 30
0.0
 40
0.3999999999999986
100
AcDbArc
 50
190.4362216586836
 51
348.7010440842535
  0
LINE
  5
33A
330
1F
100
AcDbEntity
  8
9
  6
Continuous
 62
     7
370
    35
100
AcDbLine
 10
259.8547235653189
 20
200.185141715569
 30
0.0
 11
259.4547235653188
 21
200.185141715569
 31
0.0
  0
ARC
  5
33B
330
1F
100
AcDbEntity
  8
9
  6
Continuous
 62
     7
370
    35
100
AcDbCircle
 10
266.7900044690012
 20
203.5524069540749
 30
0.0
 40
8.151460220977583
100
AcDbArc
 50
182.582343949889
 51
190.2741177283853
  0
ARC
  5
33C
330
1F
100
AcDbEntity
  8
9
  6
Continuous
 62
     7
370
    35
100
AcDbCircle
 10
261.1461907164838
 20
202.274355277942
 30
0.0
 40
1.0
100
AcDbArc
 50
234.2211531735273
 51
269.9999999999998
  0
ARC
  5
33D
330
1F
100
AcDbEntity
  8
9
  6
Continuous
 62
     7
370
    35
100
AcDbCircle
 10
261.3775436382821
 20
201.385141715569
 30
0.0
 40
0.7999999999999972
100
AcDbArc
 50
89.99999999999991
 51
161.9500333794174
  0
LINE
  5
33E
330
1F
100
AcDbEntity
  8
9
  6
Continuous
 62
     7
370
    35
100
AcDbLine
 10
260.6169143050782
 20
201.6330187364281
 30
0.0
 11
260.2350382319208
 21
200.4612032051391
 31
0.0
  0
LINE
  5
33F
330
1F
100
AcDbEntity
  8
9
  6
Continuous
 62
     7
370
    35
100
AcDbLine
 10
261.4480648058441
 20
203.185141715569
 30
0.0
 11
261.6618584193751
 21
203.185141715569
 31
0.0
  0
LINE
  5
340
330
1F
100
AcDbEntity
  8
9
  6
Continuous
 62
     7
370
    35
100
AcDbLine
 10
269.4220724471605
 20
201.274355277942
 30
0.0
 11
271.0211907164838
 21
201.274355277942
 31
0.0
  0
ARC
  5
341
330
1F
100
AcDbEntity
  8
9
  6
Continuous
 62
     7
370
    35
100
AcDbCircle
 10
270.699058442192
 20
201.885141715569
 30
0.0
 40
1.299999999999997
100
AcDbArc
 50
89.99999999999991
 51
168.6811662726079
  0
ARC
  5
342
330
1F
100
AcDbEntity
  8
9
  6
Continuous
 62
     7
370
    35
100
AcDbCircle
 10
270.5888595377335
 20
200.9851417155689
 30
0.0
 40
1.200000000000003
100
AcDbArc
 50
89.99999999999991
 51
162.6940025391945
  0
ARC
  5
343
330
1F
100
AcDbEntity
  8
9
  6
Continuous
 62
     7
370
    35
100
AcDbCircle
 10
271.0219752719761
 20
189.7827954483039
 30
0.0
 40
1.599999999999994
100
AcDbArc
 50
197.3317314661403
 51
219.4294468810415
  0
ARC
  5
344
330
1F
100
AcDbEntity
  8
9
  6
Continuous
 62
     7
370
    35
100
AcDbCircle
 10
271.0219752719761
 20
189.7827954483039
 30
0.0
 40
1.599999999999994
100
AcDbArc
 50
197.3317314661403
 51
219.4294468810415
  0
LINE
  5
345
330
1F
100
AcDbEntity
  8
9
  6
Continuous
 62
     7
370
    35
100
AcDbLine
 10
268.2251968072697
 20
190.185141715569
 30
0.0
 11
271.0211907164838
 21
190.185141715569
 31
0.0
  0
ARC
  5
346
330
1F
100
AcDbEntity
  8
9
  6
Continuous
 62
     7
370
    35
100
AcDbCircle
 10
254.2711907164838
 20
196.1466948774314
 30
0.0
 40
12.5
100
AcDbArc
 50
343.7397952916887
 51
16.26020470830989
  0
ARC
  5
347
330
1F
100
AcDbEntity
  8
9
  6
Continuous
 62
     7
370
    35
100
AcDbCircle
 10
268.2251968072697
 20
191.685141715569
 30
0.0
 40
1.5
100
AcDbArc
 50
235.2454430135329
 51
269.9999999999998
  0
ARC
  5
348
330
1F
100
AcDbEntity
  8
9
  6
Continuous
 62
     7
370
    35
100
AcDbCircle
 10
266.8000415322588
 20
189.6311377131121
 30
0.0
 40
1.0
100
AcDbArc
 50
55.24544301353327
 51
122.0970060036968
  0
LINE
  5
349
330
1F
100
AcDbEntity
  8
9
  6
Continuous
 62
     7
370
    35
100
AcDbLine
 10
268.5827293430842
 20
190.185141715569
 30
0.0
 11
269.5063100999994
 21
189.2615609586535
 31
0.0
  0
LINE
  5
34A
330
1F
100
AcDbEntity
  8
9
  6
Continuous
 62
     7
370
    35
100
AcDbLine
 10
264.6972274907046
 20
201.274355277942
 30
0.0
 11
267.8336234341724
 21
201.274355277942
 31
0.0
  0
ARC
  5
34B
330
1F
100
AcDbEntity
  8
9
  6
Continuous
 62
     7
370
    35
100
AcDbCircle
 10
265.8547397604692
 20
201.885141715569
 30
0.0
 40
1.299999999999997
100
AcDbArc
 50
89.99999999999991
 51
167.6791678141248
  0
LINE
  5
34C
330
1F
100
AcDbEntity
  8
9
  6
Continuous
 62
     7
370
    35
100
AcDbLine
 10
265.7290929090228
 20
202.185141715569
 30
0.0
 11
267.6537042636613
 21
202.185141715569
 31
0.0
  0
ARC
  5
34D
330
1F
100
AcDbEntity
  8
9
  6
Continuous
 62
     7
370
    35
100
AcDbCircle
 10
265.0211907164838
 20
201.6001298595704
 30
0.0
 40
1.0
100
AcDbArc
 50
319.780901255444
 51
340.9874906208179
  0
ARC
  5
34E
330
1F
100
AcDbEntity
  8
9
  6
Continuous
 62
     7
370
    35
100
AcDbCircle
 10
263.7502055015482
 20
200.685141715569
 30
0.0
 40
0.5
100
AcDbArc
 50
191.7577571472742
 51
347.6791678141216
  0
LINE
  5
34F
330
1F
100
AcDbEntity
  8
9
  6
Continuous
 62
     7
370
    35
100
AcDbLine
 10
263.9502055015481
 20
200.185141715569
 30
0.0
 11
263.7502055015482
 21
200.185141715569
 31
0.0
  0
LINE
  5
350
330
1F
100
AcDbEntity
  8
9
  6
Continuous
 62
     7
370
    35
100
AcDbLine
 10
263.2606965550929
 20
200.5832545655453
 30
0.0
 11
262.9345816801595
 21
202.1500483056304
 31
0.0
  0
ARC
  5
351
330
1F
100
AcDbEntity
  8
9
  6
Continuous
 62
     7
370
    35
100
AcDbCircle
 10
265.7290929090228
 20
201.185141715569
 30
0.0
 40
1.0
100
AcDbArc
 50
89.99999999999991
 51
159.9682734747136
  0
LINE
  5
352
330
1F
100
AcDbEntity
  8
9
  6
Continuous
 62
     7
370
    35
100
AcDbLine
 10
264.238689528592
 20
200.5784489073612
 30
0.0
 11
264.5846812901557
 21
202.1625430169085
 31
0.0
  0
LINE
  5
353
330
1F
100
AcDbEntity
  8
9
  6
Continuous
 62
     7
370
    35
100
AcDbLine
 10
264.419957046109
 20
200.5138715010464
 30
0.0
 11
264.7895898199009
 21
201.5276821446141
 31
0.0
  0
ARC
  5
354
330
1F
100
AcDbEntity
  8
9
  6
Continuous
 62
     7
370
    35
100
AcDbCircle
 10
263.9502055015481
 20
200.685141715569
 30
0.0
 40
0.5
100
AcDbArc
 50
269.9999999999998
 51
339.9682734747133
  0
LINE
  5
355
330
1F
100
AcDbEntity
  8
9
  6
Continuous
 62
     7
370
    35
100
AcDbLine
 10
267.6644133133744
 20
202.1357276794974
 30
0.0
 11
267.9524453194802
 21
200.6694866552948
 31
0.0
  0
ARC
  5
356
330
1F
100
AcDbEntity
  8
9
  6
Continuous
 62
     7
370
    35
100
AcDbCircle
 10
266.3887931995935
 20
201.885141715569
 30
0.0
 40
1.299999999999997
100
AcDbArc
 50
11.1138071924949
 51
89.99999999999991
  0
LINE
  5
357
330
1F
100
AcDbEntity
  8
9
  6
Continuous
 62
     7
370
    35
100
AcDbLine
 10
266.3887931995935
 20
203.185141715569
 30
0.0
 11
265.8547397604692
 21
203.185141715569
 31
0.0
  0
ARC
  5
358
330
1F
100
AcDbEntity
  8
9
  6
Continuous
 62
     7
370
    35
100
AcDbCircle
 10
268.541193064302
 20
200.7851417155693
 30
0.0
 40
0.5999999999999943
100
AcDbArc
 50
191.1138071925059
 51
348.6811662726122
  0
ARC
  5
359
330
1F
100
AcDbEntity
  8
9
  6
Continuous
 62
     7
370
    35
100
AcDbCircle
 10
268.6411930643019
 20
200.7851417155693
 30
0.0
 40
0.5999999999999943
100
AcDbArc
 50
269.9999999999998
 51
342.6940025391838
  0
LINE
  5
35A
330
1F
100
AcDbEntity
  8
9
  6
Continuous
 62
     7
370
    35
100
AcDbLine
 10
268.6411930643019
 20
200.185141715569
 30
0.0
 11
268.541193064302
 21
200.185141715569
 31
0.0
  0
LINE
  5
35B
330
1F
100
AcDbEntity
  8
9
  6
Continuous
 62
     7
370
    35
100
AcDbLine
 10
269.1295231819038
 20
200.6673806323467
 30
0.0
 11
269.4243431873863
 21
202.1402907292181
 31
0.0
  0
LINE
  5
35C
330
1F
100
AcDbEntity
  8
9
  6
Continuous
 62
     7
370
    35
100
AcDbLine
 10
269.2140308641581
 20
200.6066568280976
 30
0.0
 11
269.4431839380209
 21
201.3421114905127
 31
0.0
  0
ARC
  5
35D
330
1F
100
AcDbEntity
  8
9
  6
Continuous
 62
     7
370
    35
100
AcDbCircle
 10
287.7711907164838
 20
196.1466948774314
 30
0.0
 40
12.5
100
AcDbArc
 50
163.7397952916891
 51
196.2602047083095
  0
LINE
  5
35E
330
1F
100
AcDbEntity
  8
9
  6
Continuous
 62
     7
370
    35
100
AcDbLine
 10
273.4596520898834
 20
190.185141715569
 30
0.0
 11
272.5360713321969
 21
189.2615609578822
 31
0.0
  0
LINE
  5
35F
330
1F
100
AcDbEntity
  8
9
  6
Continuous
 62
     7
370
    35
100
AcDbLine
 10
273.8171846256981
 20
190.185141715569
 30
0.0
 11
271.0211907164838
 21
190.185141715569
 31
0.0
  0
ARC
  5
360
330
1F
100
AcDbEntity
  8
9
  6
Continuous
 62
     7
370
    35
100
AcDbCircle
 10
271.0219752719761
 20
189.7827954483039
 30
0.0
 40
1.599999999999994
100
AcDbArc
 50
320.5705531189578
 51
342.7537116970602
  0
ARC
  5
361
330
1F
100
AcDbEntity
  8
9
  6
Continuous
 62
     7
370
    35
100
AcDbCircle
 10
275.2423399007092
 20
189.6311377131121
 30
0.0
 40
1.0
100
AcDbArc
 50
57.90299399629766
 51
124.7545569864668
  0
ARC
  5
362
330
1F
100
AcDbEntity
  8
9
  6
Continuous
 62
     7
370
    35
100
AcDbCircle
 10
273.8171846256981
 20
191.685141715569
 30
0.0
 40
1.5
100
AcDbArc
 50
269.9999999999998
 51
304.7545569864802
  0
ARC
  5
363
330
1F
100
AcDbEntity
  8
9
  6
Continuous
 62
     7
370
    35
100
AcDbCircle
 10
273.501188368666
 20
200.7851417155693
 30
0.0
 40
0.5999999999999943
100
AcDbArc
 50
191.318833727387
 51
348.8861928074933
  0
ARC
  5
364
330
1F
100
AcDbEntity
  8
9
  6
Continuous
 62
     7
370
    35
100
AcDbCircle
 10
273.4011883686658
 20
200.7851417155693
 30
0.0
 40
0.5999999999999943
100
AcDbArc
 50
197.3059974608154
 51
269.9999999999998
  0
LINE
  5
365
330
1F
100
AcDbEntity
  8
9
  6
Continuous
 62
     7
370
    35
100
AcDbLine
 10
272.6203089858075
 20
201.274355277942
 30
0.0
 11
271.0211907164838
 21
201.274355277942
 31
0.0
  0
ARC
  5
366
330
1F
100
AcDbEntity
  8
9
  6
Continuous
 62
     7
370
    35
100
AcDbCircle
 10
271.3433229907758
 20
201.885141715569
 30
0.0
 40
1.299999999999997
100
AcDbArc
 50
11.31883372739209
 51
89.99999999999991
  0
LINE
  5
367
330
1F
100
AcDbEntity
  8
9
  6
Continuous
 62
     7
370
    35
100
AcDbLine
 10
271.4535218952345
 20
202.185141715569
 30
0.0
 11
271.0211907164838
 21
202.185141715569
 31
0.0
  0
LINE
  5
368
330
1F
100
AcDbEntity
  8
9
  6
Continuous
 62
     7
370
    35
100
AcDbLine
 10
271.3433229907758
 20
203.185141715569
 30
0.0
 11
270.699058442192
 21
203.185141715569
 31
0.0
  0
LINE
  5
369
330
1F
100
AcDbEntity
  8
9
  6
Continuous
 62
     7
370
    35
100
AcDbLine
 10
270.5888595377335
 20
202.185141715569
 30
0.0
 11
271.0211907164838
 21
202.185141715569
 31
0.0
  0
LINE
  5
36A
330
1F
100
AcDbEntity
  8
9
  6
Continuous
 62
     7
370
    35
100
AcDbLine
 10
272.9128582510639
 20
200.6673806323467
 30
0.0
 11
272.6180382455812
 21
202.1402907292181
 31
0.0
  0
ARC
  5
36B
330
1F
100
AcDbEntity
  8
9
  6
Continuous
 62
     7
370
    35
100
AcDbCircle
 10
271.4535218952345
 20
200.9851417155689
 30
0.0
 40
1.200000000000003
100
AcDbArc
 50
17.30599746080545
 51
89.99999999999991
  0
LINE
  5
36C
330
1F
100
AcDbEntity
  8
9
  6
Continuous
 62
     7
370
    35
100
AcDbLine
 10
272.8283505688094
 20
200.6066568280976
 30
0.0
 11
272.5991974949468
 21
201.3421114905127
 31
0.0
  0
ARC
  5
36D
330
1F
100
AcDbEntity
  8
9
  6
Continuous
 62
     7
370
    35
100
AcDbCircle
 10
275.6535882333745
 20
201.885141715569
 30
0.0
 40
1.299999999999997
100
AcDbArc
 50
89.99999999999991
 51
168.8861928075051
  0
LINE
  5
36E
330
1F
100
AcDbEntity
  8
9
  6
Continuous
 62
     7
370
    35
100
AcDbLine
 10
276.313288523945
 20
202.185141715569
 30
0.0
 11
274.3886771693072
 21
202.185141715569
 31
0.0
  0
LINE
  5
36F
330
1F
100
AcDbEntity
  8
9
  6
Continuous
 62
     7
370
    35
100
AcDbLine
 10
274.3779681195936
 20
202.1357276794974
 30
0.0
 11
274.0899361134878
 21
200.6694866552948
 31
0.0
  0
LINE
  5
370
330
1F
100
AcDbEntity
  8
9
  6
Continuous
 62
     7
370
    35
100
AcDbLine
 10
273.501188368666
 20
200.185141715569
 30
0.0
 11
273.4011883686658
 21
200.185141715569
 31
0.0
  0
LINE
  5
371
330
1F
100
AcDbEntity
  8
9
  6
Continuous
 62
     7
370
    35
100
AcDbLine
 10
275.6535882333745
 20
203.185141715569
 30
0.0
 11
276.1876416724984
 21
203.185141715569
 31
0.0
  0
ARC
  5
372
330
1F
100
AcDbEntity
  8
9
  6
Continuous
 62
     7
370
    35
100
AcDbCircle
 10
277.0211907164838
 20
201.6001298595704
 30
0.0
 40
1.0
100
AcDbArc
 50
199.0125093791814
 51
220.2190987445552
  0
ARC
  5
373
330
1F
100
AcDbEntity
  8
9
  6
Continuous
 62
     7
370
    35
100
AcDbCircle
 10
278.2880424609137
 20
168.9822733028065
 30
0.0
 40
10.74860911180585
100
AcDbArc
 50
270.9500223564178
 51
356.9265203792469
  0
ARC
  5
374
330
1F
100
AcDbEntity
  8
9
  6
Continuous
 62
     7
370
    35
100
AcDbCircle
 10
276.0211907164838
 20
168.4059692490782
 30
0.0
 40
15.0
100
AcDbArc
 50
306.6829888003692
 51
0.0
  0
ARC
  5
375
330
1F
100
AcDbEntity
  8
9
  6
Continuous
 62
     7
370
    35
100
AcDbCircle
 10
276.0818856688082
 20
169.5599211865067
 30
0.0
 40
11.0
100
AcDbArc
 50
294.5192087310219
 51
353.9783228073723
  0
ARC
  5
376
330
1F
100
AcDbEntity
  8
9
  6
Continuous
 62
     7
370
    35
100
AcDbCircle
 10
276.0211907164838
 20
168.4059692490782
 30
0.0
 40
17.0
100
AcDbArc
 50
289.7499227956413
 51
0.0
  0
LINE
  5
377
330
1F
100
AcDbEntity
  8
8
  6
Continuous
 62
     4
370
    25
100
AcDbLine
 10
280.0997591397582
 20
136.9845376723526
 30
0.0
 11
280.5346850447439
 21
150.9014711396582
 31
0.0
  0
LINE
  5
378
330
1F
100
AcDbEntity
  8
9
  6
Continuous
 62
     7
370
    35
100
AcDbLine
 10
281.2992449443962
 20
138.1840234769904
 30
0.0
 11
281.6847050708096
 21
150.5181311309695
 31
0.0
  0
LINE
  5
379
330
1F
100
AcDbEntity
  8
9
  6
Continuous
 62
     7
370
    35
100
AcDbLine
 10
279.5211907164838
 20
136.4059692490782
 30
0.0
 11
281.2992449443962
 21
138.1840234769904
 31
0.0
  0
ARC
  5
37A
330
1F
100
AcDbEntity
  8
9
  6
Continuous
 62
     7
370
    35
100
AcDbCircle
 10
281.9950614394086
 20
160.3864388023637
 30
0.0
 40
5.0
100
AcDbArc
 50
284.679080052201
 51
306.6829888003687
  0
ARC
  5
37B
330
1F
100
AcDbEntity
  8
9
  6
Continuous
 62
     7
370
    35
100
AcDbCircle
 10
284.9089392481522
 20
149.2628519207019
 30
0.0
 40
6.498907295833106
100
AcDbArc
 50
104.6790800522011
 51
140.8990391255013
  0
LINE
  5
37C
330
1F
100
AcDbEntity
  8
9
  6
Continuous
 62
     7
370
    35
100
AcDbLine
 10
281.6847050708096
 20
150.5181311309695
 30
0.0
 11
280.5211907164838
 21
150.9059692490782
 31
0.0
  0
LINE
  5
37D
330
1F
100
AcDbEntity
  8
9
  6
Continuous
 62
     7
370
    35
100
AcDbLine
 10
279.3522417271404
 20
152.4059692490782
 30
0.0
 11
279.3522417271404
 21
156.435141715569
 31
0.0
  0
LINE
  5
37E
330
1F
100
AcDbEntity
  8
9
  6
Continuous
 62
     7
370
    35
100
AcDbLine
 10
280.5211907164838
 20
152.4059692490782
 30
0.0
 11
280.5211907164838
 21
150.9059692490782
 31
0.0
  0
LINE
  5
37F
330
1F
100
AcDbEntity
  8
9
  6
Continuous
 62
     7
370
    35
100
AcDbLine
 10
278.466257176646
 20
156.4059692490782
 30
0.0
 11
278.466257176646
 21
158.2351417155648
 31
0.0
  0
ARC
  5
380
330
1F
100
AcDbEntity
  8
9
  6
Continuous
 62
     7
370
    35
100
AcDbCircle
 10
280.3148682161857
 20
160.2797348331205
 30
0.0
 40
0.7999999999999972
100
AcDbArc
 50
270.0000000000119
 51
294.5192087310242
  0
LINE
  5
381
330
1F
100
AcDbEntity
  8
9
  6
Continuous
 62
     7
370
    35
100
AcDbLine
 10
280.314868216186
 20
159.4797348331205
 30
0.0
 11
279.6706377904421
 21
159.4797348331203
 31
0.0
  0
ARC
  5
382
330
1F
100
AcDbEntity
  8
9
  6
Continuous
 62
     7
370
    35
100
AcDbCircle
 10
263.0211907164838
 20
170.1466948774314
 30
0.0
 40
30.0
100
AcDbArc
 50
0.0
 51
40.21909874455456
  0
ARC
  5
383
330
1F
100
AcDbEntity
  8
9
  6
Continuous
 62
     7
370
    35
100
AcDbCircle
 10
263.0211907164838
 20
170.1466948774314
 30
0.0
 40
28.0
100
AcDbArc
 50
0.0
 51
22.02431283704267
  0
ARC
  5
384
330
1F
100
AcDbEntity
  8
9
  6
Continuous
 62
     7
370
    35
100
AcDbCircle
 10
263.0211907164838
 20
170.1466948774314
 30
0.0
 40
26.0
100
AcDbArc
 50
0.0
 51
23.81884139345785
  0
LINE
  5
385
330
1F
100
AcDbEntity
  8
9
  6
Continuous
 62
     7
370
    35
100
AcDbLine
 10
287.0211907164838
 20
168.4059692490784
 30
0.0
 11
287.0211907164838
 21
170.1466948774314
 31
0.0
  0
LINE
  5
386
330
1F
100
AcDbEntity
  8
9
  6
Continuous
 62
     7
370
    35
100
AcDbLine
 10
289.0211907164838
 20
168.4059692490782
 30
0.0
 11
289.0211907164838
 21
170.1466948774314
 31
0.0
  0
LINE
  5
387
330
1F
100
AcDbEntity
  8
9
  6
Continuous
 62
     7
370
    35
100
AcDbLine
 10
291.0211907164838
 20
168.4059692490782
 30
0.0
 11
291.0211907164838
 21
170.1466948774314
 31
0.0
  0
ARC
  5
388
330
1F
100
AcDbEntity
  8
9
  6
Continuous
 62
     7
370
    35
100
AcDbCircle
 10
284.3225869227979
 20
201.5851417155688
 30
0.0
 40
0.5999999999999943
100
AcDbArc
 50
57.77768193554963
 51
89.99999999999991
  0
ARC
  5
389
330
1F
100
AcDbEntity
  8
9
  6
Continuous
 62
     7
370
    35
100
AcDbCircle
 10
284.260772455046
 20
201.885141715569
 30
0.0
 40
1.299999999999997
100
AcDbArc
 50
53.74353731478668
 51
89.99999999999991
  0
LINE
  5
38A
330
1F
100
AcDbEntity
  8
9
  6
Continuous
 62
     7
370
    35
100
AcDbLine
 10
280.8961907164838
 20
201.274355277942
 30
0.0
 11
278.9255316501865
 21
201.274355277942
 31
0.0
  0
ARC
  5
38B
330
1F
100
AcDbEntity
  8
9
  6
Continuous
 62
     7
370
    35
100
AcDbCircle
 10
280.6648377946856
 20
201.385141715569
 30
0.0
 40
0.7999999999999972
100
AcDbArc
 50
18.04996662058262
 51
89.99999999999991
  0
ARC
  5
38C
330
1F
100
AcDbEntity
  8
9
  6
Continuous
 62
     7
370
    35
100
AcDbCircle
 10
280.5943166271239
 20
201.8851417155688
 30
0.0
 40
1.299999999999997
100
AcDbArc
 50
11.29895591576028
 51
89.99999999999991
  0
ARC
  5
38D
330
1F
100
AcDbEntity
  8
9
  6
Continuous
 62
     7
370
    35
100
AcDbCircle
 10
280.3805230135929
 20
201.885141715569
 30
0.0
 40
1.299999999999997
100
AcDbArc
 50
89.99999999999991
 51
168.2422428527334
  0
LINE
  5
38E
330
1F
100
AcDbEntity
  8
9
  6
Continuous
 62
     7
370
    35
100
AcDbLine
 10
278.7816848778751
 20
200.5832545655453
 30
0.0
 11
279.107799752808
 21
202.1500483056304
 31
0.0
  0
LINE
  5
38F
330
1F
100
AcDbEntity
  8
9
  6
Continuous
 62
     7
370
    35
100
AcDbLine
 10
277.622424386859
 20
200.5138715010464
 30
0.0
 11
277.2527916130669
 21
201.5276821446141
 31
0.0
  0
LINE
  5
390
330
1F
100
AcDbEntity
  8
9
  6
Continuous
 62
     7
370
    35
100
AcDbLine
 10
277.803691904376
 20
200.5784489073612
 30
0.0
 11
277.4577001428123
 21
202.1625430169085
 31
0.0
  0
ARC
  5
391
330
1F
100
AcDbEntity
  8
9
  6
Continuous
 62
     7
370
    35
100
AcDbCircle
 10
278.2921759314198
 20
200.685141715569
 30
0.0
 40
0.5
100
AcDbArc
 50
192.3208321858777
 51
348.2422428527251
  0
ARC
  5
392
330
1F
100
AcDbEntity
  8
9
  6
Continuous
 62
     7
370
    35
100
AcDbCircle
 10
278.0921759314199
 20
200.685141715569
 30
0.0
 40
0.5
100
AcDbArc
 50
200.031726525286
 51
269.9999999999998
  0
LINE
  5
393
330
1F
100
AcDbEntity
  8
9
  6
Continuous
 62
     7
370
    35
100
AcDbLine
 10
278.0921759314199
 20
200.185141715569
 30
0.0
 11
278.2921759314198
 21
200.185141715569
 31
0.0
  0
LINE
  5
394
330
1F
100
AcDbEntity
  8
9
  6
Continuous
 62
     7
370
    35
100
AcDbLine
 10
280.6648377946856
 20
202.185141715569
 30
0.0
 11
279.1156119495257
 21
202.185141715569
 31
0.0
  0
LINE
  5
395
330
1F
100
AcDbEntity
  8
9
  6
Continuous
 62
     7
370
    35
100
AcDbLine
 10
280.5943166271239
 20
203.185141715569
 30
0.0
 11
280.3805230135929
 21
203.185141715569
 31
0.0
  0
ARC
  5
396
330
1F
100
AcDbEntity
  8
9
  6
Continuous
 62
     7
370
    35
100
AcDbCircle
 10
282.5876578676489
 20
200.5851417155688
 30
0.0
 40
0.4000000000000057
100
AcDbArc
 50
191.2989559157458
 51
349.5637783413143
  0
ARC
  5
397
330
1F
100
AcDbEntity
  8
9
  6
Continuous
 62
     7
370
    35
100
AcDbCircle
 10
280.8961907164838
 20
202.274355277942
 30
0.0
 40
1.0
100
AcDbArc
 50
269.9999999999998
 51
305.7788468264928
  0
LINE
  5
398
330
1F
100
AcDbEntity
  8
9
  6
Continuous
 62
     7
370
    35
100
AcDbLine
 10
281.4254671278894
 20
201.6330187364281
 30
0.0
 11
281.8073432010472
 21
200.4612032051391
 31
0.0
  0
LINE
  5
399
330
1F
100
AcDbEntity
  8
9
  6
Continuous
 62
     7
370
    35
100
AcDbLine
 10
282.1954105760277
 20
200.5067704056664
 30
0.0
 11
281.869120324893
 21
202.1398484727513
 31
0.0
  0
LINE
  5
39A
330
1F
100
AcDbEntity
  8
9
  6
Continuous
 62
     7
370
    35
100
AcDbLine
 10
282.1876578676491
 20
200.185141715569
 30
0.0
 11
282.5876578676489
 21
200.185141715569
 31
0.0
  0
ARC
  5
39B
330
1F
100
AcDbEntity
  8
9
  6
Continuous
 62
     7
370
    35
100
AcDbCircle
 10
282.1876578676491
 20
200.5851417155688
 30
0.0
 40
0.4000000000000057
100
AcDbArc
 50
198.049966620581
 51
269.9999999999998
  0
LINE
  5
39C
330
1F
100
AcDbEntity
  8
9
  6
Continuous
 62
     7
370
    35
100
AcDbLine
 10
284.3225869227979
 20
202.185141715569
 30
0.0
 11
283.2883516716018
 21
202.185141715569
 31
0.0
  0
LINE
  5
39D
330
1F
100
AcDbEntity
  8
9
  6
Continuous
 62
     7
370
    35
100
AcDbLine
 10
284.260772455046
 20
203.185141715569
 30
0.0
 11
283.3955593872436
 21
203.185141715569
 31
0.0
  0
LINE
  5
39E
330
1F
100
AcDbEntity
  8
9
  6
Continuous
 62
     7
370
    35
100
AcDbLine
 10
282.9810407286012
 20
200.5126853513948
 30
0.0
 11
283.2731342917194
 21
202.0985308852564
 31
0.0
  0
ARC
  5
39F
330
1F
100
AcDbEntity
  8
9
  6
Continuous
 62
     7
370
    35
100
AcDbCircle
 10
275.2523769639668
 20
203.5524069540749
 30
0.0
 40
8.151460220977583
100
AcDbArc
 50
349.725882271614
 51
357.4176560501103
  0
LINE
  5
3A0
330
1F
100
AcDbEntity
  8
9
  6
Continuous
 62
     7
370
    35
100
AcDbLine
 10
287.7749018341977
 20
200.185141715569
 30
0.0
 11
288.5749018341974
 21
200.185141715569
 31
0.0
  0
ARC
  5
3A1
330
1F
100
AcDbEntity
  8
9
  6
Continuous
 62
     7
370
    35
100
AcDbCircle
 10
286.9334235113479
 20
201.885141715569
 30
0.0
 40
1.299999999999997
100
AcDbArc
 50
5.157213474818865
 51
89.99999999999991
  0
LINE
  5
3A2
330
1F
100
AcDbEntity
  8
9
  6
Continuous
 62
     7
370
    35
100
AcDbLine
 10
288.3757114737508
 20
200.3671639430397
 30
0.0
 11
288.2281608542515
 21
202.0019972370089
 31
0.0
  0
ARC
  5
3A3
330
1F
100
AcDbEntity
  8
9
  6
Continuous
 62
     7
370
    35
100
AcDbCircle
 10
286.5900376375928
 20
201.2198659884839
 30
0.0
 40
0.2999999999999972
100
AcDbArc
 50
237.7776819355423
 51
314.999999999992
  0
LINE
  5
3A4
330
1F
100
AcDbEntity
  8
9
  6
Continuous
 62
     7
370
    35
100
AcDbLine
 10
287.0236292788564
 20
201.4709994090269
 30
0.0
 11
285.0295932449658
 21
202.93343298854
 31
0.0
  0
LINE
  5
3A5
330
1F
100
AcDbEntity
  8
9
  6
Continuous
 62
     7
370
    35
100
AcDbLine
 10
286.2844272517853
 20
203.0752062243994
 30
0.0
 11
287.2965150146027
 21
201.7491538940482
 31
0.0
  0
LINE
  5
3A6
330
1F
100
AcDbEntity
  8
9
  6
Continuous
 62
     7
370
    35
100
AcDbLine
 10
286.9334235113479
 20
203.185141715569
 30
0.0
 11
286.1766352826997
 21
203.185141715569
 31
0.0
  0
ARC
  5
3A7
330
1F
100
AcDbEntity
  8
9
  6
Continuous
 62
     7
370
    35
100
AcDbCircle
 10
285.2703832204546
 20
202.1887468887375
 30
0.0
 40
1.34688360716865
100
AcDbArc
 50
41.15937921291653
 51
47.71250584115533
  0
LINE
  5
3A8
330
1F
100
AcDbEntity
  8
9
  6
Continuous
 62
     7
370
    35
100
AcDbLine
 10
284.6425104315588
 20
202.0927330359661
 30
0.0
 11
286.4300758832122
 21
200.9660703282854
 31
0.0
  0
ARC
  5
3A9
330
1F
100
AcDbEntity
  8
9
  6
Continuous
 62
     7
370
    35
100
AcDbCircle
 10
287.1433862421302
 20
201.6264464949106
 30
0.0
 40
0.1962282516922187
100
AcDbArc
 50
232.3892216438179
 51
38.70640762798271
  0
LINE
  5
3AA
330
1F
100
AcDbEntity
  8
9
  6
Continuous
 62
     7
370
    35
100
AcDbLine
 10
287.4403634576532
 20
201.8221899779632
 30
0.0
 11
287.5757615405267
 21
200.3666175843716
 31
0.0
  0
LINE
  5
3AB
330
1F
100
AcDbEntity
  8
9
  6
Continuous
 62
     7
370
    35
100
AcDbLine
 10
286.8021696719489
 20
201.0077339541278
 30
0.0
 11
287.2850585593138
 21
201.4906228414929
 31
0.0
  0
ARC
  5
3AC
330
1F
100
AcDbEntity
  8
9
  6
Continuous
 62
     7
370
    35
100
AcDbCircle
 10
287.7749018341977
 20
200.3851417155688
 30
0.0
 40
0.2000000000000028
100
AcDbArc
 50
185.3143895586572
 51
269.9999999999998
  0
LINE
  5
3AD
330
1F
100
AcDbEntity
  8
9
  6
Continuous
 62
     7
370
    35
100
AcDbLine
 10
287.0420828703112
 20
202.185141715569
 30
0.0
 11
286.9637544373625
 21
202.185141715569
 31
0.0
  0
ARC
  5
3AE
330
1F
100
AcDbEntity
  8
9
  6
Continuous
 62
     7
370
    35
100
AcDbCircle
 10
287.0420828703112
 20
201.7851417155689
 30
0.0
 40
0.4000000000000057
100
AcDbArc
 50
5.314389558658381
 51
89.99999999999991
  0
LINE
  5
3AF
330
1F
100
AcDbEntity
  8
9
  6
Continuous
 62
     7
370
    35
100
AcDbLine
 10
290.7107465457346
 20
201.4923653794035
 30
0.0
 11
289.328830540072
 21
202.8219479004913
 31
0.0
  0
LINE
  5
3B0
330
1F
100
AcDbEntity
  8
9
  6
Continuous
 62
     7
370
    35
100
AcDbLine
 10
291.1388726393507
 20
201.7817991222314
 30
0.0
 11
289.8747441070771
 21
203.0443503730228
 31
0.0
  0
ARC
  5
3B1
330
1F
100
AcDbEntity
  8
9
  6
Continuous
 62
     7
370
    35
100
AcDbCircle
 10
290.2355150914112
 20
201.0198629305293
 30
0.0
 40
0.0999999999999943
100
AcDbArc
 50
225.896157277592
 51
314.9999999999536
  0
LINE
  5
3B2
330
1F
100
AcDbEntity
  8
9
  6
Continuous
 62
     7
370
    35
100
AcDbLine
 10
290.1659189955677
 20
200.9480549682737
 30
0.0
 11
288.8964171432288
 21
202.1694804864973
 31
0.0
  0
ARC
  5
3B3
330
1F
100
AcDbEntity
  8
9
  6
Continuous
 62
     7
370
    35
100
AcDbCircle
 10
288.42750142599
 20
201.885141715569
 30
0.0
 40
1.299999999999997
100
AcDbArc
 50
46.1057042895184
 51
89.99999999999991
  0
ARC
  5
3B4
330
1F
100
AcDbEntity
  8
9
  6
Continuous
 62
     7
370
    35
100
AcDbCircle
 10
289.5211907164838
 20
202.6907969824294
 30
0.0
 40
0.5
100
AcDbArc
 50
45.0
 51
83.00000000000733
  0
LINE
  5
3B5
330
1F
100
AcDbEntity
  8
9
  6
Continuous
 62
     7
370
    35
100
AcDbLine
 10
288.8927091072376
 20
202.0985308852555
 30
0.0
 11
288.7744344790077
 21
200.3714770291428
 31
0.0
  0
LINE
  5
3B6
330
1F
100
AcDbEntity
  8
9
  6
Continuous
 62
     7
370
    35
100
AcDbLine
 10
288.7583140841339
 20
200.3053924423861
 30
0.0
 11
288.7586553142167
 21
200.2835776898307
 31
0.0
  0
ARC
  5
3B7
330
1F
100
AcDbEntity
  8
9
  6
Continuous
 62
     7
370
    35
100
AcDbCircle
 10
288.5749018341974
 20
200.3851417155688
 30
0.0
 40
0.2000000000000028
100
AcDbArc
 50
185.1572134748481
 51
356.082303628571
  0
ARC
  5
3B8
330
1F
100
AcDbEntity
  8
9
  6
Continuous
 62
     7
370
    35
100
AcDbCircle
 10
287.6522247481396
 20
202.1989339636334
 30
0.0
 40
1.24454096891742
100
AcDbArc
 50
355.3726464066835
 51
52.41289174619488
  0
LINE
  5
3B9
330
1F
100
AcDbEntity
  8
9
  6
Continuous
 62
     7
370
    35
100
AcDbLine
 10
290.3062257695297
 20
200.9491522524108
 30
0.0
 11
291.0589124675615
 21
201.7018389504419
 31
0.0
  0
ARC
  5
3BA
330
1F
100
AcDbEntity
  8
9
  6
Continuous
 62
     7
370
    35
100
AcDbCircle
 10
290.7800795545102
 20
201.5644273936282
 30
0.0
 40
0.0999999999999943
100
AcDbArc
 50
226.1057042894905
 51
314.9999999999536
  0
LINE
  5
3BB
330
1F
100
AcDbEntity
  8
9
  6
Continuous
 62
     7
370
    35
100
AcDbLine
 10
290.3062257695299
 20
200.9491522524108
 30
0.0
 11
291.1388726393507
 21
201.7817991222314
 31
0.0
  0
LINE
  5
3BC
330
1F
100
AcDbEntity
  8
9
  6
Continuous
 62
     7
370
    35
100
AcDbLine
 10
293.0211907164838
 20
168.4059692490782
 30
0.0
 11
293.0211907164838
 21
170.1466948774314
 31
0.0
  0
LINE
  5
3BD
330
1F
100
AcDbEntity
  8
9
  6
Continuous
 62
     7
370
    35
100
AcDbLine
 10
271.0211907164838
 20
203.9851417155689
 30
0.0
 11
283.143060059889
 21
203.9776878672103
 31
0.0
  0
LINE
  5
3BE
330
1F
100
AcDbEntity
  8
9
  6
Continuous
 62
     7
370
    35
100
AcDbLine
 10
263.2711907164838
 20
203.9851417155689
 30
0.0
 11
258.8993213730787
 21
203.9776878672103
 31
0.0
  0
LINE
  5
3BF
330
1F
100
AcDbEntity
  8
9
  6
Continuous
 62
     7
370
    35
100
AcDbLine
 10
263.2711907164838
 20
203.9851417155689
 30
0.0
 11
271.0211907164838
 21
203.9851417155689
 31
0.0
  0
LINE
  5
3C0
330
1F
100
AcDbEntity
  8
9
  6
Continuous
 62
     7
370
    35
100
AcDbLine
 10
278.554456437784
 20
160.0495911066382
 30
0.0
 11
277.0206377904392
 21
160.9351417155701
 31
0.0
  0
ARC
  5
3C1
330
1F
100
AcDbEntity
  8
9
  6
Continuous
 62
     7
370
    35
100
AcDbCircle
 10
262.720637790442
 20
160.2797348331205
 30
0.0
 40
0.8000000000000114
100
AcDbArc
 50
269.9999999999998
 51
343.2809085822672
  0
LINE
  5
3C2
330
1F
100
AcDbEntity
  8
9
  6
Continuous
 62
     7
370
    35
100
AcDbLine
 10
271.0211907164838
 20
160.9351417155689
 30
0.0
 11
265.0206377904421
 21
160.935141715569
 31
0.0
  0
LINE
  5
3C3
330
1F
100
AcDbEntity
  8
9
  6
Continuous
 62
     7
370
    35
100
AcDbLine
 10
265.0206377904421
 20
160.935141715569
 30
0.0
 11
263.4868191430999
 21
160.0495911066377
 31
0.0
  0
LINE
  5
3C4
330
1F
100
AcDbEntity
  8
9
  6
Continuous
 62
     7
370
    35
100
AcDbLine
 10
263.4868191430999
 20
160.0495911066377
 30
0.0
 11
278.5544564377848
 21
160.0495911066377
 31
0.0
  0
LINE
  5
3C5
330
1F
100
AcDbEntity
  8
9
  6
Continuous
 62
     7
370
    35
100
AcDbLine
 10
277.0206377904392
 20
160.9351417155701
 30
0.0
 11
271.0211907164838
 21
160.9351417155692
 31
0.0
  0
LINE
  5
3C6
330
1F
100
AcDbEntity
  8
9
  6
Continuous
 62
     7
370
    35
100
AcDbLine
 10
280.3148682161857
 20
159.4797348331203
 30
0.0
 11
279.3217436425255
 21
159.4797348331203
 31
0.0
  0
ARC
  5
3C7
330
1F
100
AcDbEntity
  8
9
  6
Continuous
 62
     7
370
    35
100
AcDbCircle
 10
279.3217436425255
 20
160.2797348331205
 30
0.0
 40
0.8000000000000114
100
AcDbArc
 50
196.719091417732
 51
269.9999999999998
  0
LINE
  5
3C8
330
1F
100
AcDbEntity
  8
9
  6
Continuous
 62
     7
370
    35
100
AcDbLine
 10
263.576124256322
 20
158.2351417155648
 30
0.0
 11
278.466257176807
 21
158.2351417155673
 31
0.0
  0
ARC
  5
3C9
330
1F
100
AcDbEntity
  8
9
  6
Continuous
 62
     7
370
    35
100
AcDbCircle
 10
271.0219752719761
 20
189.7827954483036
 30
0.0
 40
1.600000000000023
100
AcDbArc
 50
197.3317314661397
 51
269.971905174807
  0
ARC
  5
3CA
330
1F
100
AcDbEntity
  8
9
  6
Continuous
 62
     7
370
    35
100
AcDbCircle
 10
271.0219752719761
 20
189.7827954483036
 30
0.0
 40
1.600000000000023
100
AcDbArc
 50
269.971905174807
 51
342.7537116970582
  0
MTEXT
  5
3CB
330
1F
100
AcDbEntity
  8
6
  6
Continuous
 62
     3
370
     9
100
AcDbMText
 10
151.064903447966
 20
7.86669605719112
 30
0.0
 40
3.3
 41
32.320024356576
 71
     7
 72
     1
  1
{\fＭＳ Ｐゴシック;\W0.714286;SDEU 取付状態}
 73
     1
 44
1.0
1001
ACAD
1000
ACAD_MTEXT_DEFINED_HEIGHT_BEGIN
1070
    46
1040
3.3
1000
ACAD_MTEXT_DEFINED_HEIGHT_END
  0
MTEXT
  5
3CC
330
1F
100
AcDbEntity
  8
6
  6
Continuous
 62
     3
370
     9
100
AcDbMText
 10
332.064902723966
 20
7.86669605719112
 30
0.0
 40
3.3
 41
32.320024356576
 71
     7
 72
     1
  1
{\fＭＳ Ｐゴシック;\W0.714286;SDEU 作動状態}
 73
     1
 44
1.0
1001
ACAD
1000
ACAD_MTEXT_DEFINED_HEIGHT_BEGIN
1070
    46
1040
3.3
1000
ACAD_MTEXT_DEFINED_HEIGHT_END
  0
CIRCLE
  5
3CD
330
1F
100
AcDbEntity
  8
6
  6
Continuous
 62
     3
370
    25
100
AcDbCircle
 10
112.4191634121091
 20
226.0650837590011
 30
0.0
 40
3.0
  0
INSERT
  5
3CE
330
1F
100
AcDbEntity
  8
6
  6
Continuous
 62
     3
370
    25
100
AcDbBlockReference
  2
_OPEN
 10
100.0035048991841
 20
203.9790034996979
 30
0.0
 41
2.3
 42
2.3
 43
2.3
 50
240.6575443763468
  0
POLYLINE
  5
3CF
330
1F
100
AcDbEntity
  8
6
  6
Continuous
 62
     3
370
    25
100
AcDb2dPolyline
 66
     1
 10
0.0
 20
0.0
 30
0.0
  0
VERTEX
  5
3D0
330
3CF
100
AcDbEntity
  8
6
  6
Continuous
 62
     3
370
    25
100
AcDbVertex
100
AcDb2dVertex
 10
100.0035048991841
 20
203.9790034996979
 30
0.0
  0
VERTEX
  5
3D1
330
3CF
100
AcDbEntity
  8
6
  6
Continuous
 62
     3
370
    25
100
AcDbVertex
100
AcDb2dVertex
 10
110.9490778751694
 20
223.4499645429651
 30
0.0
  0
SEQEND
  5
3D2
330
3CF
100
AcDbEntity
  8
6
  6
Continuous
 62
     3
370
    25
  0
MTEXT
  5
3D3
330
1F
100
AcDbEntity
  8
6
  6
Continuous
 62
     3
370
     9
100
AcDbMText
 10
112.4191634121091
 20
226.0650837590011
 30
0.0
 40
3.3
 41
1.007490402996
 71
     5
 72
     1
  1
{\fＭＳ Ｐゴシック;\W0.714286;1}
 73
     1
 44
1.0
1001
ACAD
1000
ACAD_MTEXT_DEFINED_HEIGHT_BEGIN
1070
    46
1040
3.3
1000
ACAD_MTEXT_DEFINED_HEIGHT_END
  0
MTEXT
  5
3D4
330
1F
100
AcDbEntity
  8
7
  6
Continuous
 62
     3
370
     9
100
AcDbMText
 10
116.5211072784674
 20
274.0172721585058
 30
0.0
 40
3.3
 41
28.042374074088
 71
     5
 72
     1
  1
{\fＭＳ Ｐゴシック;\W0.714286;SDEU型ヘッド}
 73
     1
 44
1.0
1001
ACAD
1000
ACAD_MTEXT_DEFINED_HEIGHT_BEGIN
1070
    46
1040
3.3
1000
ACAD_MTEXT_DEFINED_HEIGHT_END
  0
VIEWPORT
  5
6A
102
{ACAD_XDICTIONARY
360
3DC
102
}
330
1B
100
AcDbEntity
 67
     1
  8
0
100
AcDbViewport
 10
148.5
 20
105.0
 30
0.0
 40
297.0
 41
210.0
 68
     1
 69
     1
 12
148.5
 22
105.0
 13
0.0
 23
0.0
 14
0.5
 24
0.5
 15
0.5
 25
0.5
 16
0.0
 26
0.0
 36
1.0
 17
0.0
 27
0.0
 37
0.0
 42
50.0
 43
0.0
 44
0.0
 45
9.0
 50
0.0
 51
0.0
 72
   100
 90
   557152
  1

281
     0
 71
     1
 74
     0
110
0.0
120
0.0
130
0.0
111
1.0
121
0.0
131
0.0
112
0.0
122
1.0
132
0.0
 79
     0
146
0.0
  0
ENDSEC
  0
SECTION
  2
OBJECTS
  0
DICTIONARY
  5
C
330
0
100
AcDbDictionary
281
     1
  3
ACAD_GROUP
350
D
  3
ACAD_LAYOUT
350
1A
  3
ACAD_MATERIAL
350
43
  3
ACAD_MLEADERSTYLE
350
3D7
  3
ACAD_MLINESTYLE
350
17
  3
ACAD_PLOTSETTINGS
350
19
  3
ACAD_PLOTSTYLENAME
350
E
  3
ACAD_SCALELIST
350
47
  3
ACAD_VISUALSTYLE
350
2A
  3
AcDbVariableDictionary
350
3D5
  0
DICTIONARY
  5
3DE
330
8
100
AcDbDictionary
280
     1
281
     1
  3
ACAD_XREC_ROUNDTRIP
360
3DF
  0
DICTIONARY
  5
3DC
330
6A
100
AcDbDictionary
280
     1
281
     1
  3
ACAD_XREC_ROUNDTRIP
360
3DD
  0
DICTIONARY
  5
D
102
{ACAD_REACTORS
330
C
102
}
330
C
100
AcDbDictionary
281
     1
  0
DICTIONARY
  5
1A
102
{ACAD_REACTORS
330
C
102
}
330
C
100
AcDbDictionary
281
     1
  3
Layout1
350
1E
  3
Layout2
350
26
  3
Model
350
22
  0
DICTIONARY
  5
43
102
{ACAD_REACTORS
330
C
102
}
330
C
100
AcDbDictionary
281
     1
  3
ByBlock
350
45
  3
ByLayer
350
44
  3
Global
350
46
  0
DICTIONARY
  5
3D7
102
{ACAD_REACTORS
330
C
102
}
330
C
100
AcDbDictionary
281
     1
  0
DICTIONARY
  5
17
102
{ACAD_REACTORS
330
C
102
}
330
C
100
AcDbDictionary
281
     1
  3
Standard
350
18
  0
DICTIONARY
  5
19
102
{ACAD_REACTORS
330
C
102
}
330
C
100
AcDbDictionary
281
     1
  0
ACDBDICTIONARYWDFLT
  5
E
102
{ACAD_REACTORS
330
C
102
}
330
C
100
AcDbDictionary
281
     1
  3
Normal
350
F
100
AcDbDictionaryWithDefault
340
F
  0
DICTIONARY
  5
47
102
{ACAD_REACTORS
330
C
102
}
330
C
100
AcDbDictionary
281
     1
  3
A0
350
48
  3
A1
350
49
  3
A2
350
4A
  3
A3
350
4B
  3
A4
350
4C
  3
A5
350
4D
  3
A6
350
4E
  3
A7
350
4F
  3
A8
350
50
  3
A9
350
51
  3
B0
350
52
  3
B1
350
53
  3
B2
350
54
  3
B3
350
55
  3
B4
350
56
  3
B5
350
57
  3
B6
350
58
  3
B7
350
59
  3
B8
350
5A
  3
B9
350
5B
  3
C0
350
5C
  3
C1
350
5D
  3
C2
350
5E
  3
C3
350
5F
  3
C4
350
60
  3
C5
350
61
  3
C6
350
62
  3
C7
350
63
  3
C8
350
64
  3
C9
350
65
  3
D0
350
66
  3
D1
350
67
  3
D2
350
68
  0
DICTIONARY
  5
2A
102
{ACAD_REACTORS
330
C
102
}
330
C
100
AcDbDictionary
281
     1
  3
2dWireframe
350
2F
  3
Basic
350
32
  3
Brighten
350
36
  3
ColorChange
350
3A
  3
Conceptual
350
34
  3
Dim
350
35
  3
EdgeColorOff
350
3D
  3
Facepattern
350
39
  3
Flat
350
2B
  3
FlatWithEdges
350
2C
  3
Gouraud
350
2D
  3
GouraudWithEdges
350
2E
  3
Hidden
350
31
  3
JitterOff
350
3B
  3
Linepattern
350
38
  3
OverhangOff
350
3C
  3
Realistic
350
33
  3
Shaded
350
42
  3
Shaded with edges
350
41
  3
Shades of Gray
350
3E
  3
Sketchy
350
3F
  3
Thicken
350
37
  3
Wireframe
350
30
  3
X-Ray
350
40
  0
DICTIONARY
  5
3D5
102
{ACAD_REACTORS
330
C
102
}
330
C
100
AcDbDictionary
281
     1
  3
CANNOSCALE
350
3E0
  3
DIMASSOC
350
3D8
  3
HIDETEXT
350
3DB
  3
MSLTSCALE
350
3E1
  0
XRECORD
  5
3DF
102
{ACAD_REACTORS
330
3DE
102
}
330
3DE
100
AcDbXrecord
280
     1
102
VTR_0.000_0.000_1.000_1.000_GRIDDISPLAY
 70
     3
102
VTR_0.000_0.000_1.000_1.000_GRIDMAJOR
 70
     5
102
VTR_0.000_0.000_1.000_1.000_DEFAULTLIGHTING
280
     1
102
VTR_0.000_0.000_1.000_1.000_DEFAULTLIGHTINGTYPE
 70
     1
102
VTR_0.000_0.000_1.000_1.000_BRIGHTNESS
141
0.0
102
VTR_0.000_0.000_1.000_1.000_CONTRAST
142
0.0
  0
XRECORD
  5
3DD
102
{ACAD_REACTORS
330
3DC
102
}
330
3DC
100
AcDbXrecord
280
     1
102
GRIDDISPLAY
 70
     2
102
GRIDMAJOR
 70
     5
102
DEFAULTLIGHTING
280
     1
102
DEFAULTLIGHTINGTYPE
 70
     1
102
BRIGHTNESS
141
0.0
102
CONTRAST
142
0.0
  0
LAYOUT
  5
1E
102
{ACAD_REACTORS
330
1A
102
}
330
1A
100
AcDbPlotSettings
  1

  2
none_device
  4

  6

 40
0.0
 41
0.0
 42
0.0
 43
0.0
 44
0.0
 45
0.0
 46
0.0
 47
0.0
 48
0.0
 49
0.0
140
0.0
141
0.0
142
1.0
143
1.0
 70
   688
 72
     0
 73
     0
 74
     5
  7

 75
    16
147
1.0
148
0.0
149
0.0
100
AcDbLayout
  1
Layout1
 70
     1
 71
     1
 10
0.0
 20
0.0
 11
297.0
 21
210.0
 12
0.0
 22
0.0
 32
0.0
 14
0.0
 24
0.0
 34
0.0
 15
297.0
 25
210.0
 35
0.0
146
0.0
 13
0.0
 23
0.0
 33
0.0
 16
1.0
 26
0.0
 36
0.0
 17
0.0
 27
1.0
 37
0.0
 76
     0
330
1B
331
6A
  0
LAYOUT
  5
26
102
{ACAD_REACTORS
330
1A
102
}
330
1A
100
AcDbPlotSettings
  1

  2
none_device
  4

  6

 40
0.0
 41
0.0
 42
0.0
 43
0.0
 44
0.0
 45
0.0
 46
0.0
 47
0.0
 48
0.0
 49
0.0
140
0.0
141
0.0
142
1.0
143
1.0
 70
   688
 72
     0
 73
     0
 74
     5
  7

 75
    16
147
1.0
148
0.0
149
0.0
100
AcDbLayout
  1
Layout2
 70
     1
 71
     2
 10
0.0
 20
0.0
 11
0.0
 21
0.0
 12
0.0
 22
0.0
 32
0.0
 14
0.0
 24
0.0
 34
0.0
 15
0.0
 25
0.0
 35
0.0
146
0.0
 13
0.0
 23
0.0
 33
0.0
 16
1.0
 26
0.0
 36
0.0
 17
0.0
 27
1.0
 37
0.0
 76
     0
330
23
  0
LAYOUT
  5
22
102
{ACAD_REACTORS
330
1A
102
}
330
1A
100
AcDbPlotSettings
  1

  2
none_device
  4
Letter_(8.50_x_11.00_Inches)
  6

 40
6.35
 41
6.35
 42
6.35000508
 43
6.35000508
 44
215.9
 45
279.4
 46
0.0
 47
0.0
 48
0.0
 49
0.0
140
0.0
141
0.0
142
1.0
143
1.0
 70
  1712
 72
     0
 73
     0
 74
     0
  7

 75
     0
147
1.0
148
0.0
149
0.0
100
AcDbLayout
  1
Model
 70
     1
 71
     0
 10
0.0
 20
0.0
 11
297.0
 21
210.0
 12
0.0
 22
0.0
 32
0.0
 14
0.0211080024674857
 24
0.0172721585058753
 34
0.0
 15
362.0211065544675
 25
283.0172721585058
 35
0.0
146
0.0
 13
0.0
 23
0.0
 33
0.0
 16
1.0
 26
0.0
 36
0.0
 17
0.0
 27
1.0
 37
0.0
 76
     0
330
1F
331
29
  0
MATERIAL
  5
45
102
{ACAD_REACTORS
330
43
102
}
102
{ACAD_XDICTIONARY
360
414
102
}
330
43
100
AcDbMaterial
  1
ByBlock
  0
MATERIAL
  5
44
102
{ACAD_REACTORS
330
43
102
}
102
{ACAD_XDICTIONARY
360
412
102
}
330
43
100
AcDbMaterial
  1
ByLayer
  0
MATERIAL
  5
46
102
{ACAD_REACTORS
330
43
102
}
102
{ACAD_XDICTIONARY
360
416
102
}
330
43
100
AcDbMaterial
  1
Global
  0
MLINESTYLE
  5
18
102
{ACAD_REACTORS
330
17
102
}
330
17
100
AcDbMlineStyle
  2
Standard
 70
     0
  3

 62
   256
 51
90.0
 52
90.0
 71
     2
 49
0.5
 62
   256
  6
BYLAYER
 49
-0.5
 62
   256
  6
BYLAYER
  0
ACDBPLACEHOLDER
  5
F
102
{ACAD_REACTORS
330
E
102
}
330
E
  0
SCALE
  5
48
102
{ACAD_REACTORS
330
47
102
}
330
47
100
AcDbScale
 70
     0
300
1:1
140
1.0
141
1.0
290
     1
  0
SCALE
  5
49
102
{ACAD_REACTORS
330
47
102
}
330
47
100
AcDbScale
 70
     0
300
1:2
140
1.0
141
2.0
290
     0
  0
SCALE
  5
4A
102
{ACAD_REACTORS
330
47
102
}
330
47
100
AcDbScale
 70
     0
300
1:4
140
1.0
141
4.0
290
     0
  0
SCALE
  5
4B
102
{ACAD_REACTORS
330
47
102
}
330
47
100
AcDbScale
 70
     0
300
1:5
140
1.0
141
5.0
290
     0
  0
SCALE
  5
4C
102
{ACAD_REACTORS
330
47
102
}
330
47
100
AcDbScale
 70
     0
300
1:8
140
1.0
141
8.0
290
     0
  0
SCALE
  5
4D
102
{ACAD_REACTORS
330
47
102
}
330
47
100
AcDbScale
 70
     0
300
1:10
140
1.0
141
10.0
290
     0
  0
SCALE
  5
4E
102
{ACAD_REACTORS
330
47
102
}
330
47
100
AcDbScale
 70
     0
300
1:16
140
1.0
141
16.0
290
     0
  0
SCALE
  5
4F
102
{ACAD_REACTORS
330
47
102
}
330
47
100
AcDbScale
 70
     0
300
1:20
140
1.0
141
20.0
290
     0
  0
SCALE
  5
50
102
{ACAD_REACTORS
330
47
102
}
330
47
100
AcDbScale
 70
     0
300
1:30
140
1.0
141
30.0
290
     0
  0
SCALE
  5
51
102
{ACAD_REACTORS
330
47
102
}
330
47
100
AcDbScale
 70
     0
300
1:40
140
1.0
141
40.0
290
     0
  0
SCALE
  5
52
102
{ACAD_REACTORS
330
47
102
}
330
47
100
AcDbScale
 70
     0
300
1:50
140
1.0
141
50.0
290
     0
  0
SCALE
  5
53
102
{ACAD_REACTORS
330
47
102
}
330
47
100
AcDbScale
 70
     0
300
1:100
140
1.0
141
100.0
290
     0
  0
SCALE
  5
54
102
{ACAD_REACTORS
330
47
102
}
330
47
100
AcDbScale
 70
     0
300
2:1
140
2.0
141
1.0
290
     0
  0
SCALE
  5
55
102
{ACAD_REACTORS
330
47
102
}
330
47
100
AcDbScale
 70
     0
300
4:1
140
4.0
141
1.0
290
     0
  0
SCALE
  5
56
102
{ACAD_REACTORS
330
47
102
}
330
47
100
AcDbScale
 70
     0
300
8:1
140
8.0
141
1.0
290
     0
  0
SCALE
  5
57
102
{ACAD_REACTORS
330
47
102
}
330
47
100
AcDbScale
 70
     0
300
10:1
140
10.0
141
1.0
290
     0
  0
SCALE
  5
58
102
{ACAD_REACTORS
330
47
102
}
330
47
100
AcDbScale
 70
     0
300
100:1
140
100.0
141
1.0
290
     0
  0
SCALE
  5
59
102
{ACAD_REACTORS
330
47
102
}
330
47
100
AcDbScale
 70
     0
300
1/128" = 1'-0"
140
0.0078125
141
12.0
290
     0
  0
SCALE
  5
5A
102
{ACAD_REACTORS
330
47
102
}
330
47
100
AcDbScale
 70
     0
300
1/64" = 1'-0"
140
0.015625
141
12.0
290
     0
  0
SCALE
  5
5B
102
{ACAD_REACTORS
330
47
102
}
330
47
100
AcDbScale
 70
     0
300
1/32" = 1'-0"
140
0.03125
141
12.0
290
     0
  0
SCALE
  5
5C
102
{ACAD_REACTORS
330
47
102
}
330
47
100
AcDbScale
 70
     0
300
1/16" = 1'-0"
140
0.0625
141
12.0
290
     0
  0
SCALE
  5
5D
102
{ACAD_REACTORS
330
47
102
}
330
47
100
AcDbScale
 70
     0
300
3/32" = 1'-0"
140
0.09375
141
12.0
290
     0
  0
SCALE
  5
5E
102
{ACAD_REACTORS
330
47
102
}
330
47
100
AcDbScale
 70
     0
300
1/8" = 1'-0"
140
0.125
141
12.0
290
     0
  0
SCALE
  5
5F
102
{ACAD_REACTORS
330
47
102
}
330
47
100
AcDbScale
 70
     0
300
3/16" = 1'-0"
140
0.1875
141
12.0
290
     0
  0
SCALE
  5
60
102
{ACAD_REACTORS
330
47
102
}
330
47
100
AcDbScale
 70
     0
300
1/4" = 1'-0"
140
0.25
141
12.0
290
     0
  0
SCALE
  5
61
102
{ACAD_REACTORS
330
47
102
}
330
47
100
AcDbScale
 70
     0
300
3/8" = 1'-0"
140
0.375
141
12.0
290
     0
  0
SCALE
  5
62
102
{ACAD_REACTORS
330
47
102
}
330
47
100
AcDbScale
 70
     0
300
1/2" = 1'-0"
140
0.5
141
12.0
290
     0
  0
SCALE
  5
63
102
{ACAD_REACTORS
330
47
102
}
330
47
100
AcDbScale
 70
     0
300
3/4" = 1'-0"
140
0.75
141
12.0
290
     0
  0
SCALE
  5
64
102
{ACAD_REACTORS
330
47
102
}
330
47
100
AcDbScale
 70
     0
300
1" = 1'-0"
140
1.0
141
12.0
290
     0
  0
SCALE
  5
65
102
{ACAD_REACTORS
330
47
102
}
330
47
100
AcDbScale
 70
     0
300
1-1/2" = 1'-0"
140
1.5
141
12.0
290
     0
  0
SCALE
  5
66
102
{ACAD_REACTORS
330
47
102
}
330
47
100
AcDbScale
 70
     0
300
3" = 1'-0"
140
3.0
141
12.0
290
     0
  0
SCALE
  5
67
102
{ACAD_REACTORS
330
47
102
}
330
47
100
AcDbScale
 70
     0
300
6" = 1'-0"
140
6.0
141
12.0
290
     0
  0
SCALE
  5
68
102
{ACAD_REACTORS
330
47
102
}
330
47
100
AcDbScale
 70
     0
300
1'-0" = 1'-0"
140
12.0
141
12.0
290
     0
  0
VISUALSTYLE
  5
2F
102
{ACAD_REACTORS
330
2A
102
}
102
{ACAD_XDICTIONARY
360
3EA
102
}
330
2A
100
AcDbVisualStyle
  2
2dWireframe
 70
     4
 71
     0
 72
     2
 73
     0
 90
        0
 40
0.6
 41
30.0
 62
     5
 63
     7
 74
     1
 91
        4
 64
     7
 65
   257
 75
     1
175
     1
 42
1.0
 92
        0
 66
   257
 43
1.0
 76
     1
 77
     6
 78
     2
 67
     7
 79
     5
170
     0
171
     0
290
     0
174
     0
 93
        1
 44
0.0
173
     0
291
     0
 45
0.0
1001
ACAD
1000
AcDbSavedByObjectVersion
1070
     0
  0
VISUALSTYLE
  5
32
102
{ACAD_REACTORS
330
2A
102
}
102
{ACAD_XDICTIONARY
360
3F0
102
}
330
2A
100
AcDbVisualStyle
  2
Basic
 70
     7
 71
     1
 72
     0
 73
     1
 90
        0
 40
0.6
 41
30.0
 62
     5
 63
     7
 74
     0
 91
        4
 64
     7
 65
   257
 75
     1
175
     1
 42
1.0
 92
        8
 66
     7
 43
1.0
 76
     1
 77
     6
 78
     2
 67
     7
 79
     5
170
     0
171
     0
290
     0
174
     0
 93
        1
 44
0.0
173
     0
291
     1
 45
0.0
1001
ACAD
1000
AcDbSavedByObjectVersion
1070
     0
  0
VISUALSTYLE
  5
36
102
{ACAD_REACTORS
330
2A
102
}
102
{ACAD_XDICTIONARY
360
3F8
102
}
330
2A
100
AcDbVisualStyle
  2
Brighten
 70
    12
 71
     2
 72
     2
 73
     0
 90
        0
 40
0.6
 41
30.0
 62
     5
 63
     7
 74
     1
 91
        4
 64
     7
 65
   257
 75
     1
175
     1
 42
1.0
 92
        8
 66
     7
 43
1.0
 76
     1
 77
     6
 78
     2
 67
     7
 79
     5
170
     0
171
     0
290
     0
174
     0
 93
        1
 44
50.0
173
     0
291
     1
 45
0.0
1001
ACAD
1000
AcDbSavedByObjectVersion
1070
     0
  0
VISUALSTYLE
  5
3A
102
{ACAD_REACTORS
330
2A
102
}
102
{ACAD_XDICTIONARY
360
400
102
}
330
2A
100
AcDbVisualStyle
  2
ColorChange
 70
    16
 71
     2
 72
     2
 73
     3
 90
        0
 40
0.6
 41
30.0
 62
     5
 63
     8
 74
     1
 91
        4
 64
     7
 65
   257
 75
     1
175
     1
 42
1.0
 92
        8
 66
     8
 43
1.0
 76
     1
 77
     6
 78
     2
 67
     7
 79
     5
170
     0
171
     0
290
     0
174
     0
 93
        1
 44
0.0
173
     0
291
     1
 45
0.0
1001
ACAD
1000
AcDbSavedByObjectVersion
1070
     0
  0
VISUALSTYLE
  5
34
102
{ACAD_REACTORS
330
2A
102
}
102
{ACAD_XDICTIONARY
360
3F4
102
}
330
2A
100
AcDbVisualStyle
  2
Conceptual
 70
     9
 71
     3
 72
     2
 73
     0
 90
        0
 40
0.6
 41
30.0
 62
     5
 63
     7
 74
     2
 91
        2
 64
     7
 65
   257
 75
     1
175
     1
 42
179.0
 92
        8
 66
     7
 43
1.0
 76
     1
 77
     6
 78
     2
 67
     7
 79
     3
170
     0
171
     0
290
     0
174
     0
 93
        1
 44
0.0
173
     0
291
     0
 45
0.0
1001
ACAD
1000
AcDbSavedByObjectVersion
1070
     0
  0
VISUALSTYLE
  5
35
102
{ACAD_REACTORS
330
2A
102
}
102
{ACAD_XDICTIONARY
360
3F6
102
}
330
2A
100
AcDbVisualStyle
  2
Dim
 70
    11
 71
     2
 72
     2
 73
     0
 90
        0
 40
0.6
 41
30.0
 62
     5
 63
     7
 74
     1
 91
        4
 64
     7
 65
   257
 75
     1
175
     1
 42
1.0
 92
        8
 66
     7
 43
1.0
 76
     1
 77
     6
 78
     2
 67
     7
 79
     5
170
     0
171
     0
290
     0
174
     0
 93
        1
 44
-50.0
173
     0
291
     1
 45
0.0
1001
ACAD
1000
AcDbSavedByObjectVersion
1070
     0
  0
VISUALSTYLE
  5
3D
102
{ACAD_REACTORS
330
2A
102
}
102
{ACAD_XDICTIONARY
360
406
102
}
330
2A
100
AcDbVisualStyle
  2
EdgeColorOff
 70
    22
 71
     2
 72
     2
 73
     0
 90
        0
 40
0.6
 41
30.0
 62
     5
 63
     7
 74
     1
 91
        4
 64
     7
 65
   257
 75
     1
175
     1
 42
1.0
 92
        8
 66
     7
 43
1.0
 76
     1
 77
     6
 78
     2
 67
     7
 79
     5
170
     0
171
     0
290
     0
174
     0
 93
        1
 44
0.0
173
     0
291
     1
 45
0.0
1001
ACAD
1000
AcDbSavedByObjectVersion
1070
     0
  0
VISUALSTYLE
  5
39
102
{ACAD_REACTORS
330
2A
102
}
102
{ACAD_XDICTIONARY
360
3FE
102
}
330
2A
100
AcDbVisualStyle
  2
Facepattern
 70
    15
 71
     2
 72
     2
 73
     0
 90
        0
 40
0.6
 41
30.0
 62
     5
 63
     7
 74
     1
 91
        4
 64
     7
 65
   257
 75
     1
175
     1
 42
1.0
 92
        8
 66
     7
 43
1.0
 76
     1
 77
     6
 78
     2
 67
     7
 79
     5
170
     0
171
     0
290
     0
174
     0
 93
        1
 44
0.0
173
     0
291
     1
 45
0.0
1001
ACAD
1000
AcDbSavedByObjectVersion
1070
     0
  0
VISUALSTYLE
  5
2B
102
{ACAD_REACTORS
330
2A
102
}
102
{ACAD_XDICTIONARY
360
3E2
102
}
330
2A
100
AcDbVisualStyle
  2
Flat
 70
     0
 71
     2
 72
     1
 73
     1
 90
        2
 40
0.6
 41
30.0
 62
     5
 63
     7
 74
     0
 91
        0
 64
     7
 65
   257
 75
     1
175
     1
 42
1.0
 92
        8
 66
     7
 43
1.0
 76
     1
 77
     6
 78
     2
 67
     7
 79
     5
170
     0
171
     0
290
     0
174
     0
 93
       13
 44
0.0
173
     0
291
     1
 45
0.0
1001
ACAD
1000
AcDbSavedByObjectVersion
1070
     0
  0
VISUALSTYLE
  5
2C
102
{ACAD_REACTORS
330
2A
102
}
102
{ACAD_XDICTIONARY
360
3E4
102
}
330
2A
100
AcDbVisualStyle
  2
FlatWithEdges
 70
     1
 71
     2
 72
     1
 73
     1
 90
        2
 40
0.6
 41
30.0
 62
     5
 63
     7
 74
     1
 91
        0
 64
     7
 65
   257
 75
     1
175
     1
 42
1.0
 92
        0
 66
   257
 43
1.0
 76
     1
 77
     6
 78
     2
 67
     7
 79
     5
170
     0
171
     0
290
     0
174
     0
 93
       13
 44
0.0
173
     0
291
     1
 45
0.0
1001
ACAD
1000
AcDbSavedByObjectVersion
1070
     0
  0
VISUALSTYLE
  5
2D
102
{ACAD_REACTORS
330
2A
102
}
102
{ACAD_XDICTIONARY
360
3E6
102
}
330
2A
100
AcDbVisualStyle
  2
Gouraud
 70
     2
 71
     2
 72
     2
 73
     1
 90
        2
 40
0.6
 41
30.0
 62
     5
 63
     7
 74
     0
 91
        0
 64
     7
 65
   257
 75
     1
175
     1
 42
1.0
 92
        0
 66
     7
 43
1.0
 76
     1
 77
     6
 78
     2
 67
     7
 79
     5
170
     0
171
     0
290
     0
174
     0
 93
       13
 44
0.0
173
     0
291
     1
 45
0.0
1001
ACAD
1000
AcDbSavedByObjectVersion
1070
     0
  0
VISUALSTYLE
  5
2E
102
{ACAD_REACTORS
330
2A
102
}
102
{ACAD_XDICTIONARY
360
3E8
102
}
330
2A
100
AcDbVisualStyle
  2
GouraudWithEdges
 70
     3
 71
     2
 72
     2
 73
     1
 90
        2
 40
0.6
 41
30.0
 62
     5
 63
     7
 74
     1
 91
        0
 64
     7
 65
   257
 75
     1
175
     1
 42
1.0
 92
        0
 66
   257
 43
1.0
 76
     1
 77
     6
 78
     2
 67
     7
 79
     5
170
     0
171
     0
290
     0
174
     0
 93
       13
 44
0.0
173
     0
291
     1
 45
0.0
1001
ACAD
1000
AcDbSavedByObjectVersion
1070
     0
  0
VISUALSTYLE
  5
31
102
{ACAD_REACTORS
330
2A
102
}
102
{ACAD_XDICTIONARY
360
3EE
102
}
330
2A
100
AcDbVisualStyle
  2
Hidden
 70
     6
 71
     1
 72
     2
 73
     2
 90
        0
 40
0.6
 41
30.0
 62
     5
 63
     7
 74
     2
 91
        2
 64
     7
 65
   257
 75
     2
175
     1
 42
40.0
 92
        0
 66
   257
 43
1.0
 76
     1
 77
     6
 78
     2
 67
     7
 79
     3
170
     0
171
     0
290
     0
174
     0
 93
        1
 44
0.0
173
     0
291
     0
 45
0.0
1001
ACAD
1000
AcDbSavedByObjectVersion
1070
     0
  0
VISUALSTYLE
  5
3B
102
{ACAD_REACTORS
330
2A
102
}
102
{ACAD_XDICTIONARY
360
402
102
}
330
2A
100
AcDbVisualStyle
  2
JitterOff
 70
    20
 71
     2
 72
     2
 73
     0
 90
        0
 40
0.6
 41
30.0
 62
     5
 63
     7
 74
     1
 91
        4
 64
     7
 65
   257
 75
     1
175
     1
 42
1.0
 92
       10
 66
     7
 43
1.0
 76
     1
 77
     6
 78
     2
 67
     7
 79
     5
170
     0
171
     0
290
     0
174
     0
 93
        1
 44
0.0
173
     0
291
     1
 45
0.0
1001
ACAD
1000
AcDbSavedByObjectVersion
1070
     0
  0
VISUALSTYLE
  5
38
102
{ACAD_REACTORS
330
2A
102
}
102
{ACAD_XDICTIONARY
360
3FC
102
}
330
2A
100
AcDbVisualStyle
  2
Linepattern
 70
    14
 71
     2
 72
     2
 73
     0
 90
        0
 40
0.6
 41
30.0
 62
     5
 63
     7
 74
     1
 91
        4
 64
     7
 65
   257
 75
     7
175
     7
 42
1.0
 92
        8
 66
     7
 43
1.0
 76
     1
 77
     6
 78
     2
 67
     7
 79
     5
170
     0
171
     0
290
     0
174
     0
 93
        1
 44
0.0
173
     0
291
     1
 45
0.0
1001
ACAD
1000
AcDbSavedByObjectVersion
1070
     0
  0
VISUALSTYLE
  5
3C
102
{ACAD_REACTORS
330
2A
102
}
102
{ACAD_XDICTIONARY
360
404
102
}
330
2A
100
AcDbVisualStyle
  2
OverhangOff
 70
    21
 71
     2
 72
     2
 73
     0
 90
        0
 40
0.6
 41
30.0
 62
     5
 63
     7
 74
     1
 91
        4
 64
     7
 65
   257
 75
     1
175
     1
 42
1.0
 92
        9
 66
     7
 43
1.0
 76
     1
 77
     6
 78
     2
 67
     7
 79
     5
170
     0
171
     0
290
     0
174
     0
 93
        1
 44
0.0
173
     0
291
     1
 45
0.0
1001
ACAD
1000
AcDbSavedByObjectVersion
1070
     0
  0
VISUALSTYLE
  5
33
102
{ACAD_REACTORS
330
2A
102
}
102
{ACAD_XDICTIONARY
360
3F2
102
}
330
2A
100
AcDbVisualStyle
  2
Realistic
 70
     8
 71
     2
 72
     3
 73
     0
 90
        2
 40
0.6
 41
30.0
 62
     5
 63
     7
 74
     0
 91
        0
 64
     7
 65
   257
 75
     1
175
     1
 42
1.0
 92
        8
 66
   257
 43
1.0
 76
     1
 77
     6
 78
     2
 67
     7
 79
     3
170
     0
171
     0
290
     0
174
     0
 93
       13
 44
0.0
173
     0
291
     0
 45
0.0
1001
ACAD
1000
AcDbSavedByObjectVersion
1070
     0
  0
VISUALSTYLE
  5
42
102
{ACAD_REACTORS
330
2A
102
}
102
{ACAD_XDICTIONARY
360
410
102
}
330
2A
100
AcDbVisualStyle
  2
Shaded
 70
    27
 71
     2
 72
     2
 73
     1
 90
        2
 40
0.6
 41
30.0
 62
     5
 63
     7
 74
     0
 91
        4
 64
     7
 65
   257
 75
     1
175
     1
 42
1.0
 92
        8
 66
   257
 43
1.0
 76
     1
 77
     6
 78
     2
 67
     8
 79
     3
170
     0
171
     0
290
     0
174
     0
 93
        5
 44
0.0
173
     0
291
     0
 45
0.0
1001
ACAD
1000
AcDbSavedByObjectVersion
1070
     0
  0
VISUALSTYLE
  5
41
102
{ACAD_REACTORS
330
2A
102
}
102
{ACAD_XDICTIONARY
360
40E
102
}
330
2A
100
AcDbVisualStyle
  2
Shaded with edges
 70
    26
 71
     2
 72
     2
 73
     1
 90
        2
 40
0.6
 41
30.0
 62
     5
 63
     7
 74
     1
 91
       10
 64
     7
 65
   257
 75
     2
175
     1
 42
1.0
 92
        8
 66
   257
 43
1.0
 76
     1
 77
     6
 78
     2
 67
     7
 79
     3
170
     0
171
     0
290
     0
174
     0
 93
        5
 44
0.0
173
     0
291
     0
 45
0.0
1001
ACAD
1000
AcDbSavedByObjectVersion
1070
     0
  0
VISUALSTYLE
  5
3E
102
{ACAD_REACTORS
330
2A
102
}
102
{ACAD_XDICTIONARY
360
408
102
}
330
2A
100
AcDbVisualStyle
  2
Shades of Gray
 70
    23
 71
     2
 72
     2
 73
     3
 90
        0
 40
0.6
 41
30.0
 62
     5
 63
     7
 74
     2
 91
        2
 64
     7
 65
     7
 75
     1
175
     1
 42
40.0
 92
        8
 66
     7
 43
1.0
 76
     1
 77
     6
 78
     2
 67
     7
 79
     3
170
     0
171
     0
290
     0
174
     0
 93
        1
 44
0.0
173
     0
291
     0
 45
0.0
1001
ACAD
1000
AcDbSavedByObjectVersion
1070
     0
  0
VISUALSTYLE
  5
3F
102
{ACAD_REACTORS
330
2A
102
}
102
{ACAD_XDICTIONARY
360
40A
102
}
330
2A
100
AcDbVisualStyle
  2
Sketchy
 70
    24
 71
     1
 72
     2
 73
     2
 90
        0
 40
0.6
 41
30.0
 62
     5
 63
     7
 74
     2
 91
        2
 64
     7
 65
     7
 75
     1
175
     1
 42
40.0
 92
       11
 66
     7
 43
1.0
 76
     1
 77
     6
 78
     2
 67
     7
 79
     6
170
     0
171
     0
290
     0
174
     0
 93
        1
 44
0.0
173
     0
291
     0
 45
0.0
1001
ACAD
1000
AcDbSavedByObjectVersion
1070
     0
  0
VISUALSTYLE
  5
37
102
{ACAD_REACTORS
330
2A
102
}
102
{ACAD_XDICTIONARY
360
3FA
102
}
330
2A
100
AcDbVisualStyle
  2
Thicken
 70
    13
 71
     2
 72
     2
 73
     0
 90
        0
 40
0.6
 41
30.0
 62
     5
 63
     7
 74
     1
 91
        4
 64
     7
 65
   257
 75
     1
175
     1
 42
1.0
 92
       12
 66
     7
 43
1.0
 76
     1
 77
     6
 78
     2
 67
     7
 79
     5
170
     0
171
     0
290
     0
174
     0
 93
        1
 44
0.0
173
     0
291
     1
 45
0.0
1001
ACAD
1000
AcDbSavedByObjectVersion
1070
     0
  0
VISUALSTYLE
  5
30
102
{ACAD_REACTORS
330
2A
102
}
102
{ACAD_XDICTIONARY
360
3EC
102
}
330
2A
100
AcDbVisualStyle
  2
Wireframe
 70
     5
 71
     0
 72
     2
 73
     0
 90
        0
 40
0.6
 41
30.0
 62
     5
 63
     7
 74
     1
 91
        4
 64
     7
 65
   257
 75
     1
175
     1
 42
1.0
 92
        0
 66
   257
 43
1.0
 76
     1
 77
     6
 78
     2
 67
     7
 79
     3
170
     0
171
     0
290
     0
174
     0
 93
        1
 44
0.0
173
     0
291
     0
 45
0.0
1001
ACAD
1000
AcDbSavedByObjectVersion
1070
     0
  0
VISUALSTYLE
  5
40
102
{ACAD_REACTORS
330
2A
102
}
102
{ACAD_XDICTIONARY
360
40C
102
}
330
2A
100
AcDbVisualStyle
  2
X-Ray
 70
    25
 71
     2
 72
     2
 73
     1
 90
        1
 40
0.5
 41
30.0
 62
     5
 63
     7
 74
     1
 91
        0
 64
     7
 65
   257
 75
     1
175
     1
 42
1.0
 92
        8
 66
     7
 43
1.0
 76
     1
 77
     6
 78
     2
 67
     7
 79
     3
170
     0
171
     0
290
     0
174
     0
 93
       13
 44
0.0
173
     0
291
     0
 45
0.0
1001
ACAD
1000
AcDbSavedByObjectVersion
1070
     0
  0
DICTIONARYVAR
  5
3E0
102
{ACAD_REACTORS
330
3D5
102
}
330
3D5
100
DictionaryVariables
280
     0
  1
1:1
  0
DICTIONARYVAR
  5
3D8
102
{ACAD_REACTORS
330
3D5
102
}
330
3D5
100
DictionaryVariables
280
     0
  1
1
  0
DICTIONARYVAR
  5
3DB
102
{ACAD_REACTORS
330
3D5
102
}
330
3D5
100
DictionaryVariables
280
     0
  1
1
  0
DICTIONARYVAR
  5
3E1
102
{ACAD_REACTORS
330
3D5
102
}
330
3D5
100
DictionaryVariables
280
     0
  1
1
  0
DICTIONARY
  5
414
330
45
100
AcDbDictionary
280
     1
281
     1
  3
ACAD_XREC_ROUNDTRIP
360
415
  0
DICTIONARY
  5
412
330
44
100
AcDbDictionary
280
     1
281
     1
  3
ACAD_XREC_ROUNDTRIP
360
413
  0
DICTIONARY
  5
416
330
46
100
AcDbDictionary
280
     1
281
     1
  3
ACAD_XREC_ROUNDTRIP
360
417
  0
DICTIONARY
  5
3EA
330
2F
100
AcDbDictionary
280
     1
281
     1
  3
ACAD_XREC_ROUNDTRIP
360
3EB
  0
DICTIONARY
  5
3F0
330
32
100
AcDbDictionary
280
     1
281
     1
  3
ACAD_XREC_ROUNDTRIP
360
3F1
  0
DICTIONARY
  5
3F8
330
36
100
AcDbDictionary
280
     1
281
     1
  3
ACAD_XREC_ROUNDTRIP
360
3F9
  0
DICTIONARY
  5
400
330
3A
100
AcDbDictionary
280
     1
281
     1
  3
ACAD_XREC_ROUNDTRIP
360
401
  0
DICTIONARY
  5
3F4
330
34
100
AcDbDictionary
280
     1
281
     1
  3
ACAD_XREC_ROUNDTRIP
360
3F5
  0
DICTIONARY
  5
3F6
330
35
100
AcDbDictionary
280
     1
281
     1
  3
ACAD_XREC_ROUNDTRIP
360
3F7
  0
DICTIONARY
  5
406
330
3D
100
AcDbDictionary
280
     1
281
     1
  3
ACAD_XREC_ROUNDTRIP
360
407
  0
DICTIONARY
  5
3FE
330
39
100
AcDbDictionary
280
     1
281
     1
  3
ACAD_XREC_ROUNDTRIP
360
3FF
  0
DICTIONARY
  5
3E2
330
2B
100
AcDbDictionary
280
     1
281
     1
  3
ACAD_XREC_ROUNDTRIP
360
3E3
  0
DICTIONARY
  5
3E4
330
2C
100
AcDbDictionary
280
     1
281
     1
  3
ACAD_XREC_ROUNDTRIP
360
3E5
  0
DICTIONARY
  5
3E6
330
2D
100
AcDbDictionary
280
     1
281
     1
  3
ACAD_XREC_ROUNDTRIP
360
3E7
  0
DICTIONARY
  5
3E8
330
2E
100
AcDbDictionary
280
     1
281
     1
  3
ACAD_XREC_ROUNDTRIP
360
3E9
  0
DICTIONARY
  5
3EE
330
31
100
AcDbDictionary
280
     1
281
     1
  3
ACAD_XREC_ROUNDTRIP
360
3EF
  0
DICTIONARY
  5
402
330
3B
100
AcDbDictionary
280
     1
281
     1
  3
ACAD_XREC_ROUNDTRIP
360
403
  0
DICTIONARY
  5
3FC
330
38
100
AcDbDictionary
280
     1
281
     1
  3
ACAD_XREC_ROUNDTRIP
360
3FD
  0
DICTIONARY
  5
404
330
3C
100
AcDbDictionary
280
     1
281
     1
  3
ACAD_XREC_ROUNDTRIP
360
405
  0
DICTIONARY
  5
3F2
330
33
100
AcDbDictionary
280
     1
281
     1
  3
ACAD_XREC_ROUNDTRIP
360
3F3
  0
DICTIONARY
  5
410
330
42
100
AcDbDictionary
280
     1
281
     1
  3
ACAD_XREC_ROUNDTRIP
360
411
  0
DICTIONARY
  5
40E
330
41
100
AcDbDictionary
280
     1
281
     1
  3
ACAD_XREC_ROUNDTRIP
360
40F
  0
DICTIONARY
  5
408
330
3E
100
AcDbDictionary
280
     1
281
     1
  3
ACAD_XREC_ROUNDTRIP
360
409
  0
DICTIONARY
  5
40A
330
3F
100
AcDbDictionary
280
     1
281
     1
  3
ACAD_XREC_ROUNDTRIP
360
40B
  0
DICTIONARY
  5
3FA
330
37
100
AcDbDictionary
280
     1
281
     1
  3
ACAD_XREC_ROUNDTRIP
360
3FB
  0
DICTIONARY
  5
3EC
330
30
100
AcDbDictionary
280
     1
281
     1
  3
ACAD_XREC_ROUNDTRIP
360
3ED
  0
DICTIONARY
  5
40C
330
40
100
AcDbDictionary
280
     1
281
     1
  3
ACAD_XREC_ROUNDTRIP
360
40D
  0
XRECORD
  5
415
102
{ACAD_REACTORS
330
414
102
}
330
414
100
AcDbXrecord
280
     1
102
MATERIAL
148
0.0
149
0.0
149
0.0
 93
        0
 94
      127
282
     0
 72
     1
 77
     1
171
     1
175
     1
179
     1
273
     0
  0
XRECORD
  5
413
102
{ACAD_REACTORS
330
412
102
}
330
412
100
AcDbXrecord
280
     1
102
MATERIAL
148
0.0
149
0.0
149
0.0
 93
        0
 94
      127
282
     0
 72
     1
 77
     1
171
     1
175
     1
179
     1
273
     0
  0
XRECORD
  5
417
102
{ACAD_REACTORS
330
416
102
}
330
416
100
AcDbXrecord
280
     1
102
MATERIAL
148
0.0
149
0.0
149
0.0
 93
        0
 94
      127
282
     0
 72
     1
 77
     1
171
     1
175
     1
179
     1
273
     0
  0
XRECORD
  5
3EB
102
{ACAD_REACTORS
330
3EA
102
}
330
3EA
100
AcDbXrecord
280
     1
102
RTVSPropertyOp0
 70
     1
102
RTVSPropertyOp1
 70
     1
102
RTVSPropertyOp2
 70
     1
102
RTVSPropertyOp3
 70
     1
102
RTVSPropertyOp4
 70
     1
102
RTVSPropertyOp5
 70
     1
102
RTVSPropertyOp6
 70
     1
102
RTVSPropertyOp7
 70
     1
102
RTVSPropertyOp8
 70
     1
102
RTVSPropertyOp9
 70
     1
102
RTVSPropertyOp10
 70
     1
102
RTVSPropertyOp11
 70
     1
102
RTVSPropertyOp12
 70
     1
102
RTVSPropertyOp13
 70
     1
102
RTVSPropertyOp14
 70
     1
102
RTVSPropertyOp15
 70
     1
102
RTVSPropertyOp16
 70
     1
102
RTVSPropertyOp17
 70
     1
102
RTVSPropertyOp18
 70
     1
102
RTVSPropertyOp19
 70
     1
102
RTVSPropertyOp20
 70
     1
102
RTVSPropertyOp21
 70
     1
102
RTVSPropertyOp22
 70
     1
102
RTVSPropertyOp23
 70
     1
102
RTVSPropertyOp24
 70
     1
102
RTVSPropertyOp25
 70
     1
102
RTVSPropertyOp26
 70
     1
102
RTVSPropertyOp27
 70
     1
102
RTVSPropertyOp28
 70
     1
102
RTVSPropertyOp29
 70
     1
102
RTVSPropertyOp30
 70
     1
102
RTVSPropertyOp31
 70
     1
102
RTVSPropertyOp32
 70
     1
102
RTVSPropertyOp33
 70
     1
102
RTVSPropertyOp34
 70
     1
102
RTVSPropertyOp35
 70
     1
102
RTVSPropertyOp36
 70
     1
102
RTVSPropertyOp37
 70
     1
102
RTVSPropertyOp38
 70
     1
102
RTVSPropertyOp39
 70
     1
102
RTVSPropertyOp40
 70
     1
102
RTVSPropertyOp41
 70
     1
102
RTVSPropertyOp42
 70
     1
102
RTVSPropertyOp43
 70
     1
102
RTVSPropertyOp44
 70
     1
102
RTVSPropertyOp45
 70
     1
102
RTVSPropertyOp46
 70
     1
102
RTVSPropertyOp47
 70
     1
102
RTVSPropertyOp48
 70
     1
102
RTVSPropertyOp49
 70
     1
102
RTVSPropertyOp50
 70
     1
102
RTVSPropertyOp51
 70
     0
102
RTVSPropertyOp52
 70
     0
102
RTVSPropertyOp53
 70
     1
102
RTVSPropertyOp54
 70
     1
102
RTVSPropertyOp55
 70
     1
102
RTVSPropertyOp56
 70
     1
102
RTVSPropertyOp57
 70
     1
102
RTVSPost2010Prop28
280
     1
102
RTVSPost2010PropOp28
 70
     1
102
RTVSPost2010Prop29
280
     1
102
RTVSPost2010PropOp29
 70
     1
102
RTVSPost2010Prop30
280
     0
102
RTVSPost2010PropOp30
 70
     1
102
RTVSPost2010Prop31
280
     0
102
RTVSPost2010PropOp31
 70
     1
102
RTVSPost2010Prop32
280
     0
102
RTVSPost2010PropOp32
 70
     1
102
RTVSPost2010Prop33
280
     0
102
RTVSPost2010PropOp33
 70
     1
102
RTVSPost2010Prop34
280
     0
102
RTVSPost2010PropOp34
 70
     1
102
RTVSPost2010Prop35
280
     0
102
RTVSPost2010PropOp35
 70
     1
102
RTVSPost2010Prop36
280
     0
102
RTVSPost2010PropOp36
 70
     1
102
RTVSPost2010Prop37
 90
       50
102
RTVSPost2010PropOp37
 70
     1
102
RTVSPost2010Prop38
140
0.0
102
RTVSPost2010PropOp38
 70
     1
102
RTVSPost2010Prop39
140
1.0
102
RTVSPost2010PropOp39
 70
     1
102
RTVSPost2010Prop40
 90
        0
102
RTVSPost2010PropOp40
 70
     1
102
RTVSPost2010Prop41ColorIndex
 90
       18
102
RTVSPost2010Prop41ColorRGB
 90
        0
102
RTVSPost2010PropOp41
 70
     1
102
RTVSPost2010Prop42
 90
       50
102
RTVSPost2010PropOp42
 70
     1
102
RTVSPost2010Prop43
 90
        3
102
RTVSPost2010PropOp43
 70
     1
102
RTVSPost2010Prop44ColorIndex
 90
        5
102
RTVSPost2010Prop44ColorRGB
 90
      255
102
RTVSPost2010PropOp44
 70
     1
102
RTVSPost2010Prop45
280
     0
102
RTVSPost2010PropOp45
 70
     1
102
RTVSPost2010Prop46
 90
       50
102
RTVSPost2010PropOp46
 70
     1
102
RTVSPost2010Prop47
 90
       50
102
RTVSPost2010PropOp47
 70
     1
102
RTVSPost2010Prop48
 90
       50
102
RTVSPost2010PropOp48
 70
     1
102
RTVSPost2010Prop49
280
     0
102
RTVSPost2010PropOp49
 70
     1
102
RTVSPost2010Prop50
 90
       50
102
RTVSPost2010PropOp50
 70
     1
102
RTVSPost2010Prop51ColorIndex
 90
      256
102
RTVSPost2010Prop51ColorRGB
 90
-16777216
102
RTVSPost2010PropOp51
 70
     0
102
RTVSPost2010Prop52
140
1.0
102
RTVSPost2010PropOp52
 70
     0
102
RTVSPost2010Prop53
 90
        2
102
RTVSPost2010PropOp53
 70
     1
102
RTVSPost2010Prop54
  1
strokes_ogs.tif
102
RTVSPost2010PropOp54
 70
     1
102
RTVSPost2010Prop55
280
     0
102
RTVSPost2010PropOp55
 70
     1
102
RTVSPost2010Prop56
140
1.0
102
RTVSPost2010PropOp56
 70
     1
102
RTVSPost2010Prop57
140
1.0
102
RTVSPost2010PropOp57
 70
     1
  0
XRECORD
  5
3F1
102
{ACAD_REACTORS
330
3F0
102
}
330
3F0
100
AcDbXrecord
280
     1
102
RTVSPropertyOp0
 70
     1
102
RTVSPropertyOp1
 70
     1
102
RTVSPropertyOp2
 70
     1
102
RTVSPropertyOp3
 70
     1
102
RTVSPropertyOp4
 70
     1
102
RTVSPropertyOp5
 70
     1
102
RTVSPropertyOp6
 70
     1
102
RTVSPropertyOp7
 70
     1
102
RTVSPropertyOp8
 70
     1
102
RTVSPropertyOp9
 70
     1
102
RTVSPropertyOp10
 70
     1
102
RTVSPropertyOp11
 70
     1
102
RTVSPropertyOp12
 70
     1
102
RTVSPropertyOp13
 70
     1
102
RTVSPropertyOp14
 70
     1
102
RTVSPropertyOp15
 70
     1
102
RTVSPropertyOp16
 70
     1
102
RTVSPropertyOp17
 70
     1
102
RTVSPropertyOp18
 70
     1
102
RTVSPropertyOp19
 70
     1
102
RTVSPropertyOp20
 70
     1
102
RTVSPropertyOp21
 70
     1
102
RTVSPropertyOp22
 70
     1
102
RTVSPropertyOp23
 70
     1
102
RTVSPropertyOp24
 70
     1
102
RTVSPropertyOp25
 70
     1
102
RTVSPropertyOp26
 70
     1
102
RTVSPropertyOp27
 70
     1
102
RTVSPropertyOp28
 70
     1
102
RTVSPropertyOp29
 70
     1
102
RTVSPropertyOp30
 70
     1
102
RTVSPropertyOp31
 70
     1
102
RTVSPropertyOp32
 70
     1
102
RTVSPropertyOp33
 70
     1
102
RTVSPropertyOp34
 70
     1
102
RTVSPropertyOp35
 70
     1
102
RTVSPropertyOp36
 70
     1
102
RTVSPropertyOp37
 70
     1
102
RTVSPropertyOp38
 70
     1
102
RTVSPropertyOp39
 70
     1
102
RTVSPropertyOp40
 70
     1
102
RTVSPropertyOp41
 70
     1
102
RTVSPropertyOp42
 70
     1
102
RTVSPropertyOp43
 70
     1
102
RTVSPropertyOp44
 70
     1
102
RTVSPropertyOp45
 70
     1
102
RTVSPropertyOp46
 70
     1
102
RTVSPropertyOp47
 70
     1
102
RTVSPropertyOp48
 70
     1
102
RTVSPropertyOp49
 70
     1
102
RTVSPropertyOp50
 70
     1
102
RTVSPropertyOp51
 70
     0
102
RTVSPropertyOp52
 70
     0
102
RTVSPropertyOp53
 70
     1
102
RTVSPropertyOp54
 70
     1
102
RTVSPropertyOp55
 70
     1
102
RTVSPropertyOp56
 70
     1
102
RTVSPropertyOp57
 70
     1
102
RTVSPost2010Prop28
280
     0
102
RTVSPost2010PropOp28
 70
     1
102
RTVSPost2010Prop29
280
     1
102
RTVSPost2010PropOp29
 70
     1
102
RTVSPost2010Prop30
280
     1
102
RTVSPost2010PropOp30
 70
     1
102
RTVSPost2010Prop31
280
     0
102
RTVSPost2010PropOp31
 70
     1
102
RTVSPost2010Prop32
280
     0
102
RTVSPost2010PropOp32
 70
     1
102
RTVSPost2010Prop33
280
     0
102
RTVSPost2010PropOp33
 70
     1
102
RTVSPost2010Prop34
280
     0
102
RTVSPost2010PropOp34
 70
     1
102
RTVSPost2010Prop35
280
     0
102
RTVSPost2010PropOp35
 70
     1
102
RTVSPost2010Prop36
280
     0
102
RTVSPost2010PropOp36
 70
     1
102
RTVSPost2010Prop37
 90
       50
102
RTVSPost2010PropOp37
 70
     1
102
RTVSPost2010Prop38
140
0.0
102
RTVSPost2010PropOp38
 70
     1
102
RTVSPost2010Prop39
140
1.0
102
RTVSPost2010PropOp39
 70
     1
102
RTVSPost2010Prop40
 90
        0
102
RTVSPost2010PropOp40
 70
     1
102
RTVSPost2010Prop41ColorIndex
 90
       18
102
RTVSPost2010Prop41ColorRGB
 90
        0
102
RTVSPost2010PropOp41
 70
     1
102
RTVSPost2010Prop42
 90
       50
102
RTVSPost2010PropOp42
 70
     1
102
RTVSPost2010Prop43
 90
        3
102
RTVSPost2010PropOp43
 70
     1
102
RTVSPost2010Prop44ColorIndex
 90
        5
102
RTVSPost2010Prop44ColorRGB
 90
      255
102
RTVSPost2010PropOp44
 70
     1
102
RTVSPost2010Prop45
280
     0
102
RTVSPost2010PropOp45
 70
     1
102
RTVSPost2010Prop46
 90
       50
102
RTVSPost2010PropOp46
 70
     1
102
RTVSPost2010Prop47
 90
       50
102
RTVSPost2010PropOp47
 70
     1
102
RTVSPost2010Prop48
 90
       50
102
RTVSPost2010PropOp48
 70
     1
102
RTVSPost2010Prop49
280
     0
102
RTVSPost2010PropOp49
 70
     1
102
RTVSPost2010Prop50
 90
       50
102
RTVSPost2010PropOp50
 70
     1
102
RTVSPost2010Prop51ColorIndex
 90
      256
102
RTVSPost2010Prop51ColorRGB
 90
-16777216
102
RTVSPost2010PropOp51
 70
     0
102
RTVSPost2010Prop52
140
1.0
102
RTVSPost2010PropOp52
 70
     0
102
RTVSPost2010Prop53
 90
        2
102
RTVSPost2010PropOp53
 70
     1
102
RTVSPost2010Prop54
  1
strokes_ogs.tif
102
RTVSPost2010PropOp54
 70
     1
102
RTVSPost2010Prop55
280
     0
102
RTVSPost2010PropOp55
 70
     1
102
RTVSPost2010Prop56
140
1.0
102
RTVSPost2010PropOp56
 70
     1
102
RTVSPost2010Prop57
140
1.0
102
RTVSPost2010PropOp57
 70
     1
  0
XRECORD
  5
3F9
102
{ACAD_REACTORS
330
3F8
102
}
330
3F8
100
AcDbXrecord
280
     1
102
RTVSPropertyOp0
 70
     1
102
RTVSPropertyOp1
 70
     1
102
RTVSPropertyOp2
 70
     1
102
RTVSPropertyOp3
 70
     1
102
RTVSPropertyOp4
 70
     1
102
RTVSPropertyOp5
 70
     1
102
RTVSPropertyOp6
 70
     1
102
RTVSPropertyOp7
 70
     1
102
RTVSPropertyOp8
 70
     1
102
RTVSPropertyOp9
 70
     1
102
RTVSPropertyOp10
 70
     1
102
RTVSPropertyOp11
 70
     1
102
RTVSPropertyOp12
 70
     1
102
RTVSPropertyOp13
 70
     1
102
RTVSPropertyOp14
 70
     1
102
RTVSPropertyOp15
 70
     1
102
RTVSPropertyOp16
 70
     1
102
RTVSPropertyOp17
 70
     1
102
RTVSPropertyOp18
 70
     1
102
RTVSPropertyOp19
 70
     1
102
RTVSPropertyOp20
 70
     1
102
RTVSPropertyOp21
 70
     1
102
RTVSPropertyOp22
 70
     1
102
RTVSPropertyOp23
 70
     1
102
RTVSPropertyOp24
 70
     1
102
RTVSPropertyOp25
 70
     1
102
RTVSPropertyOp26
 70
     1
102
RTVSPropertyOp27
 70
     1
102
RTVSPropertyOp28
 70
     1
102
RTVSPropertyOp29
 70
     1
102
RTVSPropertyOp30
 70
     1
102
RTVSPropertyOp31
 70
     1
102
RTVSPropertyOp32
 70
     1
102
RTVSPropertyOp33
 70
     1
102
RTVSPropertyOp34
 70
     1
102
RTVSPropertyOp35
 70
     1
102
RTVSPropertyOp36
 70
     1
102
RTVSPropertyOp37
 70
     1
102
RTVSPropertyOp38
 70
     1
102
RTVSPropertyOp39
 70
     1
102
RTVSPropertyOp40
 70
     1
102
RTVSPropertyOp41
 70
     1
102
RTVSPropertyOp42
 70
     1
102
RTVSPropertyOp43
 70
     1
102
RTVSPropertyOp44
 70
     1
102
RTVSPropertyOp45
 70
     1
102
RTVSPropertyOp46
 70
     1
102
RTVSPropertyOp47
 70
     1
102
RTVSPropertyOp48
 70
     1
102
RTVSPropertyOp49
 70
     1
102
RTVSPropertyOp50
 70
     1
102
RTVSPropertyOp51
 70
     0
102
RTVSPropertyOp52
 70
     0
102
RTVSPropertyOp53
 70
     1
102
RTVSPropertyOp54
 70
     1
102
RTVSPropertyOp55
 70
     1
102
RTVSPropertyOp56
 70
     1
102
RTVSPropertyOp57
 70
     1
102
RTVSPost2010Prop28
280
     0
102
RTVSPost2010PropOp28
 70
     1
102
RTVSPost2010Prop29
280
     1
102
RTVSPost2010PropOp29
 70
     1
102
RTVSPost2010Prop30
280
     1
102
RTVSPost2010PropOp30
 70
     1
102
RTVSPost2010Prop31
280
     0
102
RTVSPost2010PropOp31
 70
     1
102
RTVSPost2010Prop32
280
     0
102
RTVSPost2010PropOp32
 70
     1
102
RTVSPost2010Prop33
280
     0
102
RTVSPost2010PropOp33
 70
     1
102
RTVSPost2010Prop34
280
     0
102
RTVSPost2010PropOp34
 70
     1
102
RTVSPost2010Prop35
280
     0
102
RTVSPost2010PropOp35
 70
     1
102
RTVSPost2010Prop36
280
     0
102
RTVSPost2010PropOp36
 70
     1
102
RTVSPost2010Prop37
 90
       50
102
RTVSPost2010PropOp37
 70
     1
102
RTVSPost2010Prop38
140
0.0
102
RTVSPost2010PropOp38
 70
     1
102
RTVSPost2010Prop39
140
1.0
102
RTVSPost2010PropOp39
 70
     1
102
RTVSPost2010Prop40
 90
        0
102
RTVSPost2010PropOp40
 70
     1
102
RTVSPost2010Prop41ColorIndex
 90
       18
102
RTVSPost2010Prop41ColorRGB
 90
        0
102
RTVSPost2010PropOp41
 70
     1
102
RTVSPost2010Prop42
 90
       50
102
RTVSPost2010PropOp42
 70
     1
102
RTVSPost2010Prop43
 90
        3
102
RTVSPost2010PropOp43
 70
     1
102
RTVSPost2010Prop44ColorIndex
 90
        5
102
RTVSPost2010Prop44ColorRGB
 90
      255
102
RTVSPost2010PropOp44
 70
     1
102
RTVSPost2010Prop45
280
     0
102
RTVSPost2010PropOp45
 70
     1
102
RTVSPost2010Prop46
 90
       50
102
RTVSPost2010PropOp46
 70
     1
102
RTVSPost2010Prop47
 90
       50
102
RTVSPost2010PropOp47
 70
     1
102
RTVSPost2010Prop48
 90
       50
102
RTVSPost2010PropOp48
 70
     1
102
RTVSPost2010Prop49
280
     0
102
RTVSPost2010PropOp49
 70
     1
102
RTVSPost2010Prop50
 90
       50
102
RTVSPost2010PropOp50
 70
     1
102
RTVSPost2010Prop51ColorIndex
 90
      256
102
RTVSPost2010Prop51ColorRGB
 90
-16777216
102
RTVSPost2010PropOp51
 70
     0
102
RTVSPost2010Prop52
140
1.0
102
RTVSPost2010PropOp52
 70
     0
102
RTVSPost2010Prop53
 90
        2
102
RTVSPost2010PropOp53
 70
     1
102
RTVSPost2010Prop54
  1
strokes_ogs.tif
102
RTVSPost2010PropOp54
 70
     1
102
RTVSPost2010Prop55
280
     0
102
RTVSPost2010PropOp55
 70
     1
102
RTVSPost2010Prop56
140
1.0
102
RTVSPost2010PropOp56
 70
     1
102
RTVSPost2010Prop57
140
1.0
102
RTVSPost2010PropOp57
 70
     1
  0
XRECORD
  5
401
102
{ACAD_REACTORS
330
400
102
}
330
400
100
AcDbXrecord
280
     1
102
RTVSPropertyOp0
 70
     1
102
RTVSPropertyOp1
 70
     1
102
RTVSPropertyOp2
 70
     1
102
RTVSPropertyOp3
 70
     1
102
RTVSPropertyOp4
 70
     1
102
RTVSPropertyOp5
 70
     1
102
RTVSPropertyOp6
 70
     1
102
RTVSPropertyOp7
 70
     1
102
RTVSPropertyOp8
 70
     1
102
RTVSPropertyOp9
 70
     1
102
RTVSPropertyOp10
 70
     1
102
RTVSPropertyOp11
 70
     1
102
RTVSPropertyOp12
 70
     1
102
RTVSPropertyOp13
 70
     1
102
RTVSPropertyOp14
 70
     1
102
RTVSPropertyOp15
 70
     1
102
RTVSPropertyOp16
 70
     1
102
RTVSPropertyOp17
 70
     1
102
RTVSPropertyOp18
 70
     1
102
RTVSPropertyOp19
 70
     1
102
RTVSPropertyOp20
 70
     1
102
RTVSPropertyOp21
 70
     1
102
RTVSPropertyOp22
 70
     1
102
RTVSPropertyOp23
 70
     1
102
RTVSPropertyOp24
 70
     1
102
RTVSPropertyOp25
 70
     1
102
RTVSPropertyOp26
 70
     1
102
RTVSPropertyOp27
 70
     1
102
RTVSPropertyOp28
 70
     1
102
RTVSPropertyOp29
 70
     1
102
RTVSPropertyOp30
 70
     1
102
RTVSPropertyOp31
 70
     1
102
RTVSPropertyOp32
 70
     1
102
RTVSPropertyOp33
 70
     1
102
RTVSPropertyOp34
 70
     1
102
RTVSPropertyOp35
 70
     1
102
RTVSPropertyOp36
 70
     1
102
RTVSPropertyOp37
 70
     1
102
RTVSPropertyOp38
 70
     1
102
RTVSPropertyOp39
 70
     1
102
RTVSPropertyOp40
 70
     1
102
RTVSPropertyOp41
 70
     1
102
RTVSPropertyOp42
 70
     1
102
RTVSPropertyOp43
 70
     1
102
RTVSPropertyOp44
 70
     1
102
RTVSPropertyOp45
 70
     1
102
RTVSPropertyOp46
 70
     1
102
RTVSPropertyOp47
 70
     1
102
RTVSPropertyOp48
 70
     1
102
RTVSPropertyOp49
 70
     1
102
RTVSPropertyOp50
 70
     1
102
RTVSPropertyOp51
 70
     0
102
RTVSPropertyOp52
 70
     0
102
RTVSPropertyOp53
 70
     1
102
RTVSPropertyOp54
 70
     1
102
RTVSPropertyOp55
 70
     1
102
RTVSPropertyOp56
 70
     1
102
RTVSPropertyOp57
 70
     1
102
RTVSPost2010Prop28
280
     0
102
RTVSPost2010PropOp28
 70
     1
102
RTVSPost2010Prop29
280
     1
102
RTVSPost2010PropOp29
 70
     1
102
RTVSPost2010Prop30
280
     1
102
RTVSPost2010PropOp30
 70
     1
102
RTVSPost2010Prop31
280
     0
102
RTVSPost2010PropOp31
 70
     1
102
RTVSPost2010Prop32
280
     0
102
RTVSPost2010PropOp32
 70
     1
102
RTVSPost2010Prop33
280
     0
102
RTVSPost2010PropOp33
 70
     1
102
RTVSPost2010Prop34
280
     0
102
RTVSPost2010PropOp34
 70
     1
102
RTVSPost2010Prop35
280
     0
102
RTVSPost2010PropOp35
 70
     1
102
RTVSPost2010Prop36
280
     0
102
RTVSPost2010PropOp36
 70
     1
102
RTVSPost2010Prop37
 90
       50
102
RTVSPost2010PropOp37
 70
     1
102
RTVSPost2010Prop38
140
0.0
102
RTVSPost2010PropOp38
 70
     1
102
RTVSPost2010Prop39
140
1.0
102
RTVSPost2010PropOp39
 70
     1
102
RTVSPost2010Prop40
 90
        0
102
RTVSPost2010PropOp40
 70
     1
102
RTVSPost2010Prop41ColorIndex
 90
       18
102
RTVSPost2010Prop41ColorRGB
 90
        0
102
RTVSPost2010PropOp41
 70
     1
102
RTVSPost2010Prop42
 90
       50
102
RTVSPost2010PropOp42
 70
     1
102
RTVSPost2010Prop43
 90
        3
102
RTVSPost2010PropOp43
 70
     1
102
RTVSPost2010Prop44ColorIndex
 90
        5
102
RTVSPost2010Prop44ColorRGB
 90
      255
102
RTVSPost2010PropOp44
 70
     1
102
RTVSPost2010Prop45
280
     0
102
RTVSPost2010PropOp45
 70
     1
102
RTVSPost2010Prop46
 90
       50
102
RTVSPost2010PropOp46
 70
     1
102
RTVSPost2010Prop47
 90
       50
102
RTVSPost2010PropOp47
 70
     1
102
RTVSPost2010Prop48
 90
       50
102
RTVSPost2010PropOp48
 70
     1
102
RTVSPost2010Prop49
280
     0
102
RTVSPost2010PropOp49
 70
     1
102
RTVSPost2010Prop50
 90
       50
102
RTVSPost2010PropOp50
 70
     1
102
RTVSPost2010Prop51ColorIndex
 90
      256
102
RTVSPost2010Prop51ColorRGB
 90
-16777216
102
RTVSPost2010PropOp51
 70
     0
102
RTVSPost2010Prop52
140
1.0
102
RTVSPost2010PropOp52
 70
     0
102
RTVSPost2010Prop53
 90
        2
102
RTVSPost2010PropOp53
 70
     1
102
RTVSPost2010Prop54
  1
strokes_ogs.tif
102
RTVSPost2010PropOp54
 70
     1
102
RTVSPost2010Prop55
280
     0
102
RTVSPost2010PropOp55
 70
     1
102
RTVSPost2010Prop56
140
1.0
102
RTVSPost2010PropOp56
 70
     1
102
RTVSPost2010Prop57
140
1.0
102
RTVSPost2010PropOp57
 70
     1
  0
XRECORD
  5
3F5
102
{ACAD_REACTORS
330
3F4
102
}
330
3F4
100
AcDbXrecord
280
     1
102
RTVSPropertyOp0
 70
     1
102
RTVSPropertyOp1
 70
     1
102
RTVSPropertyOp2
 70
     1
102
RTVSPropertyOp3
 70
     1
102
RTVSPropertyOp4
 70
     1
102
RTVSPropertyOp5
 70
     1
102
RTVSPropertyOp6
 70
     1
102
RTVSPropertyOp7
 70
     1
102
RTVSPropertyOp8
 70
     1
102
RTVSPropertyOp9
 70
     1
102
RTVSPropertyOp10
 70
     1
102
RTVSPropertyOp11
 70
     1
102
RTVSPropertyOp12
 70
     1
102
RTVSPropertyOp13
 70
     1
102
RTVSPropertyOp14
 70
     1
102
RTVSPropertyOp15
 70
     1
102
RTVSPropertyOp16
 70
     1
102
RTVSPropertyOp17
 70
     1
102
RTVSPropertyOp18
 70
     1
102
RTVSPropertyOp19
 70
     1
102
RTVSPropertyOp20
 70
     1
102
RTVSPropertyOp21
 70
     1
102
RTVSPropertyOp22
 70
     1
102
RTVSPropertyOp23
 70
     1
102
RTVSPropertyOp24
 70
     1
102
RTVSPropertyOp25
 70
     1
102
RTVSPropertyOp26
 70
     1
102
RTVSPropertyOp27
 70
     1
102
RTVSPropertyOp28
 70
     1
102
RTVSPropertyOp29
 70
     1
102
RTVSPropertyOp30
 70
     1
102
RTVSPropertyOp31
 70
     1
102
RTVSPropertyOp32
 70
     1
102
RTVSPropertyOp33
 70
     1
102
RTVSPropertyOp34
 70
     1
102
RTVSPropertyOp35
 70
     1
102
RTVSPropertyOp36
 70
     1
102
RTVSPropertyOp37
 70
     1
102
RTVSPropertyOp38
 70
     1
102
RTVSPropertyOp39
 70
     1
102
RTVSPropertyOp40
 70
     1
102
RTVSPropertyOp41
 70
     1
102
RTVSPropertyOp42
 70
     1
102
RTVSPropertyOp43
 70
     1
102
RTVSPropertyOp44
 70
     1
102
RTVSPropertyOp45
 70
     1
102
RTVSPropertyOp46
 70
     1
102
RTVSPropertyOp47
 70
     1
102
RTVSPropertyOp48
 70
     1
102
RTVSPropertyOp49
 70
     1
102
RTVSPropertyOp50
 70
     1
102
RTVSPropertyOp51
 70
     0
102
RTVSPropertyOp52
 70
     0
102
RTVSPropertyOp53
 70
     1
102
RTVSPropertyOp54
 70
     1
102
RTVSPropertyOp55
 70
     1
102
RTVSPropertyOp56
 70
     1
102
RTVSPropertyOp57
 70
     1
102
RTVSPost2010Prop28
280
     0
102
RTVSPost2010PropOp28
 70
     1
102
RTVSPost2010Prop29
280
     1
102
RTVSPost2010PropOp29
 70
     1
102
RTVSPost2010Prop30
280
     1
102
RTVSPost2010PropOp30
 70
     1
102
RTVSPost2010Prop31
280
     0
102
RTVSPost2010PropOp31
 70
     1
102
RTVSPost2010Prop32
280
     0
102
RTVSPost2010PropOp32
 70
     1
102
RTVSPost2010Prop33
280
     0
102
RTVSPost2010PropOp33
 70
     1
102
RTVSPost2010Prop34
280
     0
102
RTVSPost2010PropOp34
 70
     1
102
RTVSPost2010Prop35
280
     0
102
RTVSPost2010PropOp35
 70
     1
102
RTVSPost2010Prop36
280
     0
102
RTVSPost2010PropOp36
 70
     1
102
RTVSPost2010Prop37
 90
       50
102
RTVSPost2010PropOp37
 70
     1
102
RTVSPost2010Prop38
140
0.0
102
RTVSPost2010PropOp38
 70
     1
102
RTVSPost2010Prop39
140
1.0
102
RTVSPost2010PropOp39
 70
     1
102
RTVSPost2010Prop40
 90
        0
102
RTVSPost2010PropOp40
 70
     1
102
RTVSPost2010Prop41ColorIndex
 90
       18
102
RTVSPost2010Prop41ColorRGB
 90
        0
102
RTVSPost2010PropOp41
 70
     1
102
RTVSPost2010Prop42
 90
       50
102
RTVSPost2010PropOp42
 70
     1
102
RTVSPost2010Prop43
 90
        3
102
RTVSPost2010PropOp43
 70
     1
102
RTVSPost2010Prop44ColorIndex
 90
        5
102
RTVSPost2010Prop44ColorRGB
 90
      255
102
RTVSPost2010PropOp44
 70
     1
102
RTVSPost2010Prop45
280
     0
102
RTVSPost2010PropOp45
 70
     1
102
RTVSPost2010Prop46
 90
       50
102
RTVSPost2010PropOp46
 70
     1
102
RTVSPost2010Prop47
 90
       50
102
RTVSPost2010PropOp47
 70
     1
102
RTVSPost2010Prop48
 90
       50
102
RTVSPost2010PropOp48
 70
     1
102
RTVSPost2010Prop49
280
     0
102
RTVSPost2010PropOp49
 70
     1
102
RTVSPost2010Prop50
 90
       50
102
RTVSPost2010PropOp50
 70
     1
102
RTVSPost2010Prop51ColorIndex
 90
      256
102
RTVSPost2010Prop51ColorRGB
 90
-16777216
102
RTVSPost2010PropOp51
 70
     0
102
RTVSPost2010Prop52
140
1.0
102
RTVSPost2010PropOp52
 70
     0
102
RTVSPost2010Prop53
 90
        2
102
RTVSPost2010PropOp53
 70
     1
102
RTVSPost2010Prop54
  1
strokes_ogs.tif
102
RTVSPost2010PropOp54
 70
     1
102
RTVSPost2010Prop55
280
     0
102
RTVSPost2010PropOp55
 70
     1
102
RTVSPost2010Prop56
140
1.0
102
RTVSPost2010PropOp56
 70
     1
102
RTVSPost2010Prop57
140
1.0
102
RTVSPost2010PropOp57
 70
     1
  0
XRECORD
  5
3F7
102
{ACAD_REACTORS
330
3F6
102
}
330
3F6
100
AcDbXrecord
280
     1
102
RTVSPropertyOp0
 70
     1
102
RTVSPropertyOp1
 70
     1
102
RTVSPropertyOp2
 70
     1
102
RTVSPropertyOp3
 70
     1
102
RTVSPropertyOp4
 70
     1
102
RTVSPropertyOp5
 70
     1
102
RTVSPropertyOp6
 70
     1
102
RTVSPropertyOp7
 70
     1
102
RTVSPropertyOp8
 70
     1
102
RTVSPropertyOp9
 70
     1
102
RTVSPropertyOp10
 70
     1
102
RTVSPropertyOp11
 70
     1
102
RTVSPropertyOp12
 70
     1
102
RTVSPropertyOp13
 70
     1
102
RTVSPropertyOp14
 70
     1
102
RTVSPropertyOp15
 70
     1
102
RTVSPropertyOp16
 70
     1
102
RTVSPropertyOp17
 70
     1
102
RTVSPropertyOp18
 70
     1
102
RTVSPropertyOp19
 70
     1
102
RTVSPropertyOp20
 70
     1
102
RTVSPropertyOp21
 70
     1
102
RTVSPropertyOp22
 70
     1
102
RTVSPropertyOp23
 70
     1
102
RTVSPropertyOp24
 70
     1
102
RTVSPropertyOp25
 70
     1
102
RTVSPropertyOp26
 70
     1
102
RTVSPropertyOp27
 70
     1
102
RTVSPropertyOp28
 70
     1
102
RTVSPropertyOp29
 70
     1
102
RTVSPropertyOp30
 70
     1
102
RTVSPropertyOp31
 70
     1
102
RTVSPropertyOp32
 70
     1
102
RTVSPropertyOp33
 70
     1
102
RTVSPropertyOp34
 70
     1
102
RTVSPropertyOp35
 70
     1
102
RTVSPropertyOp36
 70
     1
102
RTVSPropertyOp37
 70
     1
102
RTVSPropertyOp38
 70
     1
102
RTVSPropertyOp39
 70
     1
102
RTVSPropertyOp40
 70
     1
102
RTVSPropertyOp41
 70
     1
102
RTVSPropertyOp42
 70
     1
102
RTVSPropertyOp43
 70
     1
102
RTVSPropertyOp44
 70
     1
102
RTVSPropertyOp45
 70
     1
102
RTVSPropertyOp46
 70
     1
102
RTVSPropertyOp47
 70
     1
102
RTVSPropertyOp48
 70
     1
102
RTVSPropertyOp49
 70
     1
102
RTVSPropertyOp50
 70
     1
102
RTVSPropertyOp51
 70
     0
102
RTVSPropertyOp52
 70
     0
102
RTVSPropertyOp53
 70
     1
102
RTVSPropertyOp54
 70
     1
102
RTVSPropertyOp55
 70
     1
102
RTVSPropertyOp56
 70
     1
102
RTVSPropertyOp57
 70
     1
102
RTVSPost2010Prop28
280
     0
102
RTVSPost2010PropOp28
 70
     1
102
RTVSPost2010Prop29
280
     1
102
RTVSPost2010PropOp29
 70
     1
102
RTVSPost2010Prop30
280
     1
102
RTVSPost2010PropOp30
 70
     1
102
RTVSPost2010Prop31
280
     0
102
RTVSPost2010PropOp31
 70
     1
102
RTVSPost2010Prop32
280
     0
102
RTVSPost2010PropOp32
 70
     1
102
RTVSPost2010Prop33
280
     0
102
RTVSPost2010PropOp33
 70
     1
102
RTVSPost2010Prop34
280
     0
102
RTVSPost2010PropOp34
 70
     1
102
RTVSPost2010Prop35
280
     0
102
RTVSPost2010PropOp35
 70
     1
102
RTVSPost2010Prop36
280
     0
102
RTVSPost2010PropOp36
 70
     1
102
RTVSPost2010Prop37
 90
       50
102
RTVSPost2010PropOp37
 70
     1
102
RTVSPost2010Prop38
140
0.0
102
RTVSPost2010PropOp38
 70
     1
102
RTVSPost2010Prop39
140
1.0
102
RTVSPost2010PropOp39
 70
     1
102
RTVSPost2010Prop40
 90
        0
102
RTVSPost2010PropOp40
 70
     1
102
RTVSPost2010Prop41ColorIndex
 90
       18
102
RTVSPost2010Prop41ColorRGB
 90
        0
102
RTVSPost2010PropOp41
 70
     1
102
RTVSPost2010Prop42
 90
       50
102
RTVSPost2010PropOp42
 70
     1
102
RTVSPost2010Prop43
 90
        3
102
RTVSPost2010PropOp43
 70
     1
102
RTVSPost2010Prop44ColorIndex
 90
        5
102
RTVSPost2010Prop44ColorRGB
 90
      255
102
RTVSPost2010PropOp44
 70
     1
102
RTVSPost2010Prop45
280
     0
102
RTVSPost2010PropOp45
 70
     1
102
RTVSPost2010Prop46
 90
       50
102
RTVSPost2010PropOp46
 70
     1
102
RTVSPost2010Prop47
 90
       50
102
RTVSPost2010PropOp47
 70
     1
102
RTVSPost2010Prop48
 90
       50
102
RTVSPost2010PropOp48
 70
     1
102
RTVSPost2010Prop49
280
     0
102
RTVSPost2010PropOp49
 70
     1
102
RTVSPost2010Prop50
 90
       50
102
RTVSPost2010PropOp50
 70
     1
102
RTVSPost2010Prop51ColorIndex
 90
      256
102
RTVSPost2010Prop51ColorRGB
 90
-16777216
102
RTVSPost2010PropOp51
 70
     0
102
RTVSPost2010Prop52
140
1.0
102
RTVSPost2010PropOp52
 70
     0
102
RTVSPost2010Prop53
 90
        2
102
RTVSPost2010PropOp53
 70
     1
102
RTVSPost2010Prop54
  1
strokes_ogs.tif
102
RTVSPost2010PropOp54
 70
     1
102
RTVSPost2010Prop55
280
     0
102
RTVSPost2010PropOp55
 70
     1
102
RTVSPost2010Prop56
140
1.0
102
RTVSPost2010PropOp56
 70
     1
102
RTVSPost2010Prop57
140
1.0
102
RTVSPost2010PropOp57
 70
     1
  0
XRECORD
  5
407
102
{ACAD_REACTORS
330
406
102
}
330
406
100
AcDbXrecord
280
     1
102
RTVSPropertyOp0
 70
     0
102
RTVSPropertyOp1
 70
     0
102
RTVSPropertyOp2
 70
     0
102
RTVSPropertyOp3
 70
     0
102
RTVSPropertyOp4
 70
     0
102
RTVSPropertyOp5
 70
     0
102
RTVSPropertyOp6
 70
     0
102
RTVSPropertyOp7
 70
     0
102
RTVSPropertyOp8
 70
     0
102
RTVSPropertyOp9
 70
     0
102
RTVSPropertyOp10
 70
     0
102
RTVSPropertyOp11
 70
     0
102
RTVSPropertyOp12
 70
     0
102
RTVSPropertyOp13
 70
     0
102
RTVSPropertyOp14
 70
     2
102
RTVSPropertyOp15
 70
     0
102
RTVSPropertyOp16
 70
     0
102
RTVSPropertyOp17
 70
     0
102
RTVSPropertyOp18
 70
     0
102
RTVSPropertyOp19
 70
     0
102
RTVSPropertyOp20
 70
     0
102
RTVSPropertyOp21
 70
     0
102
RTVSPropertyOp22
 70
     0
102
RTVSPropertyOp23
 70
     0
102
RTVSPropertyOp24
 70
     0
102
RTVSPropertyOp25
 70
     0
102
RTVSPropertyOp26
 70
     0
102
RTVSPropertyOp27
 70
     0
102
RTVSPropertyOp28
 70
     0
102
RTVSPropertyOp29
 70
     0
102
RTVSPropertyOp30
 70
     0
102
RTVSPropertyOp31
 70
     0
102
RTVSPropertyOp32
 70
     0
102
RTVSPropertyOp33
 70
     0
102
RTVSPropertyOp34
 70
     0
102
RTVSPropertyOp35
 70
     0
102
RTVSPropertyOp36
 70
     0
102
RTVSPropertyOp37
 70
     0
102
RTVSPropertyOp38
 70
     0
102
RTVSPropertyOp39
 70
     0
102
RTVSPropertyOp40
 70
     0
102
RTVSPropertyOp41
 70
     0
102
RTVSPropertyOp42
 70
     0
102
RTVSPropertyOp43
 70
     0
102
RTVSPropertyOp44
 70
     0
102
RTVSPropertyOp45
 70
     0
102
RTVSPropertyOp46
 70
     0
102
RTVSPropertyOp47
 70
     0
102
RTVSPropertyOp48
 70
     0
102
RTVSPropertyOp49
 70
     0
102
RTVSPropertyOp50
 70
     0
102
RTVSPropertyOp51
 70
     0
102
RTVSPropertyOp52
 70
     0
102
RTVSPropertyOp53
 70
     0
102
RTVSPropertyOp54
 70
     0
102
RTVSPropertyOp55
 70
     0
102
RTVSPropertyOp56
 70
     0
102
RTVSPropertyOp57
 70
     0
102
RTVSPost2010Prop28
280
     0
102
RTVSPost2010PropOp28
 70
     0
102
RTVSPost2010Prop29
280
     1
102
RTVSPost2010PropOp29
 70
     0
102
RTVSPost2010Prop30
280
     1
102
RTVSPost2010PropOp30
 70
     0
102
RTVSPost2010Prop31
280
     0
102
RTVSPost2010PropOp31
 70
     0
102
RTVSPost2010Prop32
280
     0
102
RTVSPost2010PropOp32
 70
     0
102
RTVSPost2010Prop33
280
     0
102
RTVSPost2010PropOp33
 70
     0
102
RTVSPost2010Prop34
280
     0
102
RTVSPost2010PropOp34
 70
     0
102
RTVSPost2010Prop35
280
     0
102
RTVSPost2010PropOp35
 70
     0
102
RTVSPost2010Prop36
280
     0
102
RTVSPost2010PropOp36
 70
     0
102
RTVSPost2010Prop37
 90
       50
102
RTVSPost2010PropOp37
 70
     0
102
RTVSPost2010Prop38
140
0.0
102
RTVSPost2010PropOp38
 70
     0
102
RTVSPost2010Prop39
140
1.0
102
RTVSPost2010PropOp39
 70
     0
102
RTVSPost2010Prop40
 90
        0
102
RTVSPost2010PropOp40
 70
     0
102
RTVSPost2010Prop41ColorIndex
 90
       18
102
RTVSPost2010Prop41ColorRGB
 90
        0
102
RTVSPost2010PropOp41
 70
     0
102
RTVSPost2010Prop42
 90
       50
102
RTVSPost2010PropOp42
 70
     0
102
RTVSPost2010Prop43
 90
        3
102
RTVSPost2010PropOp43
 70
     0
102
RTVSPost2010Prop44ColorIndex
 90
        5
102
RTVSPost2010Prop44ColorRGB
 90
      255
102
RTVSPost2010PropOp44
 70
     0
102
RTVSPost2010Prop45
280
     0
102
RTVSPost2010PropOp45
 70
     0
102
RTVSPost2010Prop46
 90
       50
102
RTVSPost2010PropOp46
 70
     0
102
RTVSPost2010Prop47
 90
       50
102
RTVSPost2010PropOp47
 70
     0
102
RTVSPost2010Prop48
 90
       50
102
RTVSPost2010PropOp48
 70
     0
102
RTVSPost2010Prop49
280
     0
102
RTVSPost2010PropOp49
 70
     0
102
RTVSPost2010Prop50
 90
       50
102
RTVSPost2010PropOp50
 70
     0
102
RTVSPost2010Prop51ColorIndex
 90
      256
102
RTVSPost2010Prop51ColorRGB
 90
-16777216
102
RTVSPost2010PropOp51
 70
     0
102
RTVSPost2010Prop52
140
1.0
102
RTVSPost2010PropOp52
 70
     0
102
RTVSPost2010Prop53
 90
        2
102
RTVSPost2010PropOp53
 70
     0
102
RTVSPost2010Prop54
  1
strokes_ogs.tif
102
RTVSPost2010PropOp54
 70
     0
102
RTVSPost2010Prop55
280
     0
102
RTVSPost2010PropOp55
 70
     0
102
RTVSPost2010Prop56
140
1.0
102
RTVSPost2010PropOp56
 70
     0
102
RTVSPost2010Prop57
140
1.0
102
RTVSPost2010PropOp57
 70
     0
  0
XRECORD
  5
3FF
102
{ACAD_REACTORS
330
3FE
102
}
330
3FE
100
AcDbXrecord
280
     1
102
RTVSPropertyOp0
 70
     1
102
RTVSPropertyOp1
 70
     1
102
RTVSPropertyOp2
 70
     1
102
RTVSPropertyOp3
 70
     1
102
RTVSPropertyOp4
 70
     1
102
RTVSPropertyOp5
 70
     1
102
RTVSPropertyOp6
 70
     1
102
RTVSPropertyOp7
 70
     1
102
RTVSPropertyOp8
 70
     1
102
RTVSPropertyOp9
 70
     1
102
RTVSPropertyOp10
 70
     1
102
RTVSPropertyOp11
 70
     1
102
RTVSPropertyOp12
 70
     1
102
RTVSPropertyOp13
 70
     1
102
RTVSPropertyOp14
 70
     1
102
RTVSPropertyOp15
 70
     1
102
RTVSPropertyOp16
 70
     1
102
RTVSPropertyOp17
 70
     1
102
RTVSPropertyOp18
 70
     1
102
RTVSPropertyOp19
 70
     1
102
RTVSPropertyOp20
 70
     1
102
RTVSPropertyOp21
 70
     1
102
RTVSPropertyOp22
 70
     1
102
RTVSPropertyOp23
 70
     1
102
RTVSPropertyOp24
 70
     1
102
RTVSPropertyOp25
 70
     1
102
RTVSPropertyOp26
 70
     1
102
RTVSPropertyOp27
 70
     1
102
RTVSPropertyOp28
 70
     1
102
RTVSPropertyOp29
 70
     1
102
RTVSPropertyOp30
 70
     1
102
RTVSPropertyOp31
 70
     1
102
RTVSPropertyOp32
 70
     1
102
RTVSPropertyOp33
 70
     1
102
RTVSPropertyOp34
 70
     1
102
RTVSPropertyOp35
 70
     1
102
RTVSPropertyOp36
 70
     1
102
RTVSPropertyOp37
 70
     1
102
RTVSPropertyOp38
 70
     1
102
RTVSPropertyOp39
 70
     1
102
RTVSPropertyOp40
 70
     1
102
RTVSPropertyOp41
 70
     1
102
RTVSPropertyOp42
 70
     1
102
RTVSPropertyOp43
 70
     1
102
RTVSPropertyOp44
 70
     1
102
RTVSPropertyOp45
 70
     1
102
RTVSPropertyOp46
 70
     1
102
RTVSPropertyOp47
 70
     1
102
RTVSPropertyOp48
 70
     1
102
RTVSPropertyOp49
 70
     1
102
RTVSPropertyOp50
 70
     1
102
RTVSPropertyOp51
 70
     0
102
RTVSPropertyOp52
 70
     0
102
RTVSPropertyOp53
 70
     1
102
RTVSPropertyOp54
 70
     1
102
RTVSPropertyOp55
 70
     1
102
RTVSPropertyOp56
 70
     1
102
RTVSPropertyOp57
 70
     1
102
RTVSPost2010Prop28
280
     0
102
RTVSPost2010PropOp28
 70
     1
102
RTVSPost2010Prop29
280
     1
102
RTVSPost2010PropOp29
 70
     1
102
RTVSPost2010Prop30
280
     1
102
RTVSPost2010PropOp30
 70
     1
102
RTVSPost2010Prop31
280
     0
102
RTVSPost2010PropOp31
 70
     1
102
RTVSPost2010Prop32
280
     0
102
RTVSPost2010PropOp32
 70
     1
102
RTVSPost2010Prop33
280
     0
102
RTVSPost2010PropOp33
 70
     1
102
RTVSPost2010Prop34
280
     0
102
RTVSPost2010PropOp34
 70
     1
102
RTVSPost2010Prop35
280
     0
102
RTVSPost2010PropOp35
 70
     1
102
RTVSPost2010Prop36
280
     0
102
RTVSPost2010PropOp36
 70
     1
102
RTVSPost2010Prop37
 90
       50
102
RTVSPost2010PropOp37
 70
     1
102
RTVSPost2010Prop38
140
0.0
102
RTVSPost2010PropOp38
 70
     1
102
RTVSPost2010Prop39
140
1.0
102
RTVSPost2010PropOp39
 70
     1
102
RTVSPost2010Prop40
 90
        0
102
RTVSPost2010PropOp40
 70
     1
102
RTVSPost2010Prop41ColorIndex
 90
       18
102
RTVSPost2010Prop41ColorRGB
 90
        0
102
RTVSPost2010PropOp41
 70
     1
102
RTVSPost2010Prop42
 90
       50
102
RTVSPost2010PropOp42
 70
     1
102
RTVSPost2010Prop43
 90
        3
102
RTVSPost2010PropOp43
 70
     1
102
RTVSPost2010Prop44ColorIndex
 90
        5
102
RTVSPost2010Prop44ColorRGB
 90
      255
102
RTVSPost2010PropOp44
 70
     1
102
RTVSPost2010Prop45
280
     0
102
RTVSPost2010PropOp45
 70
     1
102
RTVSPost2010Prop46
 90
       50
102
RTVSPost2010PropOp46
 70
     1
102
RTVSPost2010Prop47
 90
       50
102
RTVSPost2010PropOp47
 70
     1
102
RTVSPost2010Prop48
 90
       50
102
RTVSPost2010PropOp48
 70
     1
102
RTVSPost2010Prop49
280
     0
102
RTVSPost2010PropOp49
 70
     1
102
RTVSPost2010Prop50
 90
       50
102
RTVSPost2010PropOp50
 70
     1
102
RTVSPost2010Prop51ColorIndex
 90
      256
102
RTVSPost2010Prop51ColorRGB
 90
-16777216
102
RTVSPost2010PropOp51
 70
     0
102
RTVSPost2010Prop52
140
1.0
102
RTVSPost2010PropOp52
 70
     0
102
RTVSPost2010Prop53
 90
        2
102
RTVSPost2010PropOp53
 70
     1
102
RTVSPost2010Prop54
  1
strokes_ogs.tif
102
RTVSPost2010PropOp54
 70
     1
102
RTVSPost2010Prop55
280
     0
102
RTVSPost2010PropOp55
 70
     1
102
RTVSPost2010Prop56
140
1.0
102
RTVSPost2010PropOp56
 70
     1
102
RTVSPost2010Prop57
140
1.0
102
RTVSPost2010PropOp57
 70
     1
  0
XRECORD
  5
3E3
102
{ACAD_REACTORS
330
3E2
102
}
330
3E2
100
AcDbXrecord
280
     1
102
RTVSPropertyOp0
 70
     1
102
RTVSPropertyOp1
 70
     1
102
RTVSPropertyOp2
 70
     1
102
RTVSPropertyOp3
 70
     1
102
RTVSPropertyOp4
 70
     1
102
RTVSPropertyOp5
 70
     1
102
RTVSPropertyOp6
 70
     1
102
RTVSPropertyOp7
 70
     1
102
RTVSPropertyOp8
 70
     1
102
RTVSPropertyOp9
 70
     1
102
RTVSPropertyOp10
 70
     1
102
RTVSPropertyOp11
 70
     1
102
RTVSPropertyOp12
 70
     1
102
RTVSPropertyOp13
 70
     1
102
RTVSPropertyOp14
 70
     1
102
RTVSPropertyOp15
 70
     1
102
RTVSPropertyOp16
 70
     1
102
RTVSPropertyOp17
 70
     1
102
RTVSPropertyOp18
 70
     1
102
RTVSPropertyOp19
 70
     1
102
RTVSPropertyOp20
 70
     1
102
RTVSPropertyOp21
 70
     1
102
RTVSPropertyOp22
 70
     1
102
RTVSPropertyOp23
 70
     1
102
RTVSPropertyOp24
 70
     1
102
RTVSPropertyOp25
 70
     1
102
RTVSPropertyOp26
 70
     1
102
RTVSPropertyOp27
 70
     1
102
RTVSPropertyOp28
 70
     1
102
RTVSPropertyOp29
 70
     1
102
RTVSPropertyOp30
 70
     1
102
RTVSPropertyOp31
 70
     1
102
RTVSPropertyOp32
 70
     1
102
RTVSPropertyOp33
 70
     1
102
RTVSPropertyOp34
 70
     1
102
RTVSPropertyOp35
 70
     1
102
RTVSPropertyOp36
 70
     1
102
RTVSPropertyOp37
 70
     1
102
RTVSPropertyOp38
 70
     1
102
RTVSPropertyOp39
 70
     1
102
RTVSPropertyOp40
 70
     1
102
RTVSPropertyOp41
 70
     1
102
RTVSPropertyOp42
 70
     1
102
RTVSPropertyOp43
 70
     1
102
RTVSPropertyOp44
 70
     1
102
RTVSPropertyOp45
 70
     1
102
RTVSPropertyOp46
 70
     1
102
RTVSPropertyOp47
 70
     1
102
RTVSPropertyOp48
 70
     1
102
RTVSPropertyOp49
 70
     1
102
RTVSPropertyOp50
 70
     1
102
RTVSPropertyOp51
 70
     0
102
RTVSPropertyOp52
 70
     0
102
RTVSPropertyOp53
 70
     1
102
RTVSPropertyOp54
 70
     1
102
RTVSPropertyOp55
 70
     1
102
RTVSPropertyOp56
 70
     1
102
RTVSPropertyOp57
 70
     1
102
RTVSPost2010Prop28
280
     0
102
RTVSPost2010PropOp28
 70
     1
102
RTVSPost2010Prop29
280
     1
102
RTVSPost2010PropOp29
 70
     1
102
RTVSPost2010Prop30
280
     1
102
RTVSPost2010PropOp30
 70
     1
102
RTVSPost2010Prop31
280
     0
102
RTVSPost2010PropOp31
 70
     1
102
RTVSPost2010Prop32
280
     0
102
RTVSPost2010PropOp32
 70
     1
102
RTVSPost2010Prop33
280
     0
102
RTVSPost2010PropOp33
 70
     1
102
RTVSPost2010Prop34
280
     0
102
RTVSPost2010PropOp34
 70
     1
102
RTVSPost2010Prop35
280
     0
102
RTVSPost2010PropOp35
 70
     1
102
RTVSPost2010Prop36
280
     0
102
RTVSPost2010PropOp36
 70
     1
102
RTVSPost2010Prop37
 90
       50
102
RTVSPost2010PropOp37
 70
     1
102
RTVSPost2010Prop38
140
0.0
102
RTVSPost2010PropOp38
 70
     1
102
RTVSPost2010Prop39
140
1.0
102
RTVSPost2010PropOp39
 70
     1
102
RTVSPost2010Prop40
 90
        0
102
RTVSPost2010PropOp40
 70
     1
102
RTVSPost2010Prop41ColorIndex
 90
       18
102
RTVSPost2010Prop41ColorRGB
 90
        0
102
RTVSPost2010PropOp41
 70
     1
102
RTVSPost2010Prop42
 90
       50
102
RTVSPost2010PropOp42
 70
     1
102
RTVSPost2010Prop43
 90
        3
102
RTVSPost2010PropOp43
 70
     1
102
RTVSPost2010Prop44ColorIndex
 90
        5
102
RTVSPost2010Prop44ColorRGB
 90
      255
102
RTVSPost2010PropOp44
 70
     1
102
RTVSPost2010Prop45
280
     0
102
RTVSPost2010PropOp45
 70
     1
102
RTVSPost2010Prop46
 90
       50
102
RTVSPost2010PropOp46
 70
     1
102
RTVSPost2010Prop47
 90
       50
102
RTVSPost2010PropOp47
 70
     1
102
RTVSPost2010Prop48
 90
       50
102
RTVSPost2010PropOp48
 70
     1
102
RTVSPost2010Prop49
280
     0
102
RTVSPost2010PropOp49
 70
     1
102
RTVSPost2010Prop50
 90
       50
102
RTVSPost2010PropOp50
 70
     1
102
RTVSPost2010Prop51ColorIndex
 90
      256
102
RTVSPost2010Prop51ColorRGB
 90
-16777216
102
RTVSPost2010PropOp51
 70
     0
102
RTVSPost2010Prop52
140
1.0
102
RTVSPost2010PropOp52
 70
     0
102
RTVSPost2010Prop53
 90
        2
102
RTVSPost2010PropOp53
 70
     1
102
RTVSPost2010Prop54
  1
strokes_ogs.tif
102
RTVSPost2010PropOp54
 70
     1
102
RTVSPost2010Prop55
280
     0
102
RTVSPost2010PropOp55
 70
     1
102
RTVSPost2010Prop56
140
1.0
102
RTVSPost2010PropOp56
 70
     1
102
RTVSPost2010Prop57
140
1.0
102
RTVSPost2010PropOp57
 70
     1
  0
XRECORD
  5
3E5
102
{ACAD_REACTORS
330
3E4
102
}
330
3E4
100
AcDbXrecord
280
     1
102
RTVSPropertyOp0
 70
     1
102
RTVSPropertyOp1
 70
     1
102
RTVSPropertyOp2
 70
     1
102
RTVSPropertyOp3
 70
     1
102
RTVSPropertyOp4
 70
     1
102
RTVSPropertyOp5
 70
     1
102
RTVSPropertyOp6
 70
     1
102
RTVSPropertyOp7
 70
     1
102
RTVSPropertyOp8
 70
     1
102
RTVSPropertyOp9
 70
     1
102
RTVSPropertyOp10
 70
     1
102
RTVSPropertyOp11
 70
     1
102
RTVSPropertyOp12
 70
     1
102
RTVSPropertyOp13
 70
     1
102
RTVSPropertyOp14
 70
     1
102
RTVSPropertyOp15
 70
     1
102
RTVSPropertyOp16
 70
     1
102
RTVSPropertyOp17
 70
     1
102
RTVSPropertyOp18
 70
     1
102
RTVSPropertyOp19
 70
     1
102
RTVSPropertyOp20
 70
     1
102
RTVSPropertyOp21
 70
     1
102
RTVSPropertyOp22
 70
     1
102
RTVSPropertyOp23
 70
     1
102
RTVSPropertyOp24
 70
     1
102
RTVSPropertyOp25
 70
     1
102
RTVSPropertyOp26
 70
     1
102
RTVSPropertyOp27
 70
     1
102
RTVSPropertyOp28
 70
     1
102
RTVSPropertyOp29
 70
     1
102
RTVSPropertyOp30
 70
     1
102
RTVSPropertyOp31
 70
     1
102
RTVSPropertyOp32
 70
     1
102
RTVSPropertyOp33
 70
     1
102
RTVSPropertyOp34
 70
     1
102
RTVSPropertyOp35
 70
     1
102
RTVSPropertyOp36
 70
     1
102
RTVSPropertyOp37
 70
     1
102
RTVSPropertyOp38
 70
     1
102
RTVSPropertyOp39
 70
     1
102
RTVSPropertyOp40
 70
     1
102
RTVSPropertyOp41
 70
     1
102
RTVSPropertyOp42
 70
     1
102
RTVSPropertyOp43
 70
     1
102
RTVSPropertyOp44
 70
     1
102
RTVSPropertyOp45
 70
     1
102
RTVSPropertyOp46
 70
     1
102
RTVSPropertyOp47
 70
     1
102
RTVSPropertyOp48
 70
     1
102
RTVSPropertyOp49
 70
     1
102
RTVSPropertyOp50
 70
     1
102
RTVSPropertyOp51
 70
     0
102
RTVSPropertyOp52
 70
     0
102
RTVSPropertyOp53
 70
     1
102
RTVSPropertyOp54
 70
     1
102
RTVSPropertyOp55
 70
     1
102
RTVSPropertyOp56
 70
     1
102
RTVSPropertyOp57
 70
     1
102
RTVSPost2010Prop28
280
     0
102
RTVSPost2010PropOp28
 70
     1
102
RTVSPost2010Prop29
280
     1
102
RTVSPost2010PropOp29
 70
     1
102
RTVSPost2010Prop30
280
     1
102
RTVSPost2010PropOp30
 70
     1
102
RTVSPost2010Prop31
280
     0
102
RTVSPost2010PropOp31
 70
     1
102
RTVSPost2010Prop32
280
     0
102
RTVSPost2010PropOp32
 70
     1
102
RTVSPost2010Prop33
280
     0
102
RTVSPost2010PropOp33
 70
     1
102
RTVSPost2010Prop34
280
     0
102
RTVSPost2010PropOp34
 70
     1
102
RTVSPost2010Prop35
280
     0
102
RTVSPost2010PropOp35
 70
     1
102
RTVSPost2010Prop36
280
     0
102
RTVSPost2010PropOp36
 70
     1
102
RTVSPost2010Prop37
 90
       50
102
RTVSPost2010PropOp37
 70
     1
102
RTVSPost2010Prop38
140
0.0
102
RTVSPost2010PropOp38
 70
     1
102
RTVSPost2010Prop39
140
1.0
102
RTVSPost2010PropOp39
 70
     1
102
RTVSPost2010Prop40
 90
        0
102
RTVSPost2010PropOp40
 70
     1
102
RTVSPost2010Prop41ColorIndex
 90
       18
102
RTVSPost2010Prop41ColorRGB
 90
        0
102
RTVSPost2010PropOp41
 70
     1
102
RTVSPost2010Prop42
 90
       50
102
RTVSPost2010PropOp42
 70
     1
102
RTVSPost2010Prop43
 90
        3
102
RTVSPost2010PropOp43
 70
     1
102
RTVSPost2010Prop44ColorIndex
 90
        5
102
RTVSPost2010Prop44ColorRGB
 90
      255
102
RTVSPost2010PropOp44
 70
     1
102
RTVSPost2010Prop45
280
     0
102
RTVSPost2010PropOp45
 70
     1
102
RTVSPost2010Prop46
 90
       50
102
RTVSPost2010PropOp46
 70
     1
102
RTVSPost2010Prop47
 90
       50
102
RTVSPost2010PropOp47
 70
     1
102
RTVSPost2010Prop48
 90
       50
102
RTVSPost2010PropOp48
 70
     1
102
RTVSPost2010Prop49
280
     0
102
RTVSPost2010PropOp49
 70
     1
102
RTVSPost2010Prop50
 90
       50
102
RTVSPost2010PropOp50
 70
     1
102
RTVSPost2010Prop51ColorIndex
 90
      256
102
RTVSPost2010Prop51ColorRGB
 90
-16777216
102
RTVSPost2010PropOp51
 70
     0
102
RTVSPost2010Prop52
140
1.0
102
RTVSPost2010PropOp52
 70
     0
102
RTVSPost2010Prop53
 90
        2
102
RTVSPost2010PropOp53
 70
     1
102
RTVSPost2010Prop54
  1
strokes_ogs.tif
102
RTVSPost2010PropOp54
 70
     1
102
RTVSPost2010Prop55
280
     0
102
RTVSPost2010PropOp55
 70
     1
102
RTVSPost2010Prop56
140
1.0
102
RTVSPost2010PropOp56
 70
     1
102
RTVSPost2010Prop57
140
1.0
102
RTVSPost2010PropOp57
 70
     1
  0
XRECORD
  5
3E7
102
{ACAD_REACTORS
330
3E6
102
}
330
3E6
100
AcDbXrecord
280
     1
102
RTVSPropertyOp0
 70
     1
102
RTVSPropertyOp1
 70
     1
102
RTVSPropertyOp2
 70
     1
102
RTVSPropertyOp3
 70
     1
102
RTVSPropertyOp4
 70
     1
102
RTVSPropertyOp5
 70
     1
102
RTVSPropertyOp6
 70
     1
102
RTVSPropertyOp7
 70
     1
102
RTVSPropertyOp8
 70
     1
102
RTVSPropertyOp9
 70
     1
102
RTVSPropertyOp10
 70
     1
102
RTVSPropertyOp11
 70
     1
102
RTVSPropertyOp12
 70
     1
102
RTVSPropertyOp13
 70
     1
102
RTVSPropertyOp14
 70
     1
102
RTVSPropertyOp15
 70
     1
102
RTVSPropertyOp16
 70
     1
102
RTVSPropertyOp17
 70
     1
102
RTVSPropertyOp18
 70
     1
102
RTVSPropertyOp19
 70
     1
102
RTVSPropertyOp20
 70
     1
102
RTVSPropertyOp21
 70
     1
102
RTVSPropertyOp22
 70
     1
102
RTVSPropertyOp23
 70
     1
102
RTVSPropertyOp24
 70
     1
102
RTVSPropertyOp25
 70
     1
102
RTVSPropertyOp26
 70
     1
102
RTVSPropertyOp27
 70
     1
102
RTVSPropertyOp28
 70
     1
102
RTVSPropertyOp29
 70
     1
102
RTVSPropertyOp30
 70
     1
102
RTVSPropertyOp31
 70
     1
102
RTVSPropertyOp32
 70
     1
102
RTVSPropertyOp33
 70
     1
102
RTVSPropertyOp34
 70
     1
102
RTVSPropertyOp35
 70
     1
102
RTVSPropertyOp36
 70
     1
102
RTVSPropertyOp37
 70
     1
102
RTVSPropertyOp38
 70
     1
102
RTVSPropertyOp39
 70
     1
102
RTVSPropertyOp40
 70
     1
102
RTVSPropertyOp41
 70
     1
102
RTVSPropertyOp42
 70
     1
102
RTVSPropertyOp43
 70
     1
102
RTVSPropertyOp44
 70
     1
102
RTVSPropertyOp45
 70
     1
102
RTVSPropertyOp46
 70
     1
102
RTVSPropertyOp47
 70
     1
102
RTVSPropertyOp48
 70
     1
102
RTVSPropertyOp49
 70
     1
102
RTVSPropertyOp50
 70
     1
102
RTVSPropertyOp51
 70
     0
102
RTVSPropertyOp52
 70
     0
102
RTVSPropertyOp53
 70
     1
102
RTVSPropertyOp54
 70
     1
102
RTVSPropertyOp55
 70
     1
102
RTVSPropertyOp56
 70
     1
102
RTVSPropertyOp57
 70
     1
102
RTVSPost2010Prop28
280
     0
102
RTVSPost2010PropOp28
 70
     1
102
RTVSPost2010Prop29
280
     1
102
RTVSPost2010PropOp29
 70
     1
102
RTVSPost2010Prop30
280
     1
102
RTVSPost2010PropOp30
 70
     1
102
RTVSPost2010Prop31
280
     0
102
RTVSPost2010PropOp31
 70
     1
102
RTVSPost2010Prop32
280
     0
102
RTVSPost2010PropOp32
 70
     1
102
RTVSPost2010Prop33
280
     0
102
RTVSPost2010PropOp33
 70
     1
102
RTVSPost2010Prop34
280
     0
102
RTVSPost2010PropOp34
 70
     1
102
RTVSPost2010Prop35
280
     0
102
RTVSPost2010PropOp35
 70
     1
102
RTVSPost2010Prop36
280
     0
102
RTVSPost2010PropOp36
 70
     1
102
RTVSPost2010Prop37
 90
       50
102
RTVSPost2010PropOp37
 70
     1
102
RTVSPost2010Prop38
140
0.0
102
RTVSPost2010PropOp38
 70
     1
102
RTVSPost2010Prop39
140
1.0
102
RTVSPost2010PropOp39
 70
     1
102
RTVSPost2010Prop40
 90
        0
102
RTVSPost2010PropOp40
 70
     1
102
RTVSPost2010Prop41ColorIndex
 90
       18
102
RTVSPost2010Prop41ColorRGB
 90
        0
102
RTVSPost2010PropOp41
 70
     1
102
RTVSPost2010Prop42
 90
       50
102
RTVSPost2010PropOp42
 70
     1
102
RTVSPost2010Prop43
 90
        3
102
RTVSPost2010PropOp43
 70
     1
102
RTVSPost2010Prop44ColorIndex
 90
        5
102
RTVSPost2010Prop44ColorRGB
 90
      255
102
RTVSPost2010PropOp44
 70
     1
102
RTVSPost2010Prop45
280
     0
102
RTVSPost2010PropOp45
 70
     1
102
RTVSPost2010Prop46
 90
       50
102
RTVSPost2010PropOp46
 70
     1
102
RTVSPost2010Prop47
 90
       50
102
RTVSPost2010PropOp47
 70
     1
102
RTVSPost2010Prop48
 90
       50
102
RTVSPost2010PropOp48
 70
     1
102
RTVSPost2010Prop49
280
     0
102
RTVSPost2010PropOp49
 70
     1
102
RTVSPost2010Prop50
 90
       50
102
RTVSPost2010PropOp50
 70
     1
102
RTVSPost2010Prop51ColorIndex
 90
      256
102
RTVSPost2010Prop51ColorRGB
 90
-16777216
102
RTVSPost2010PropOp51
 70
     0
102
RTVSPost2010Prop52
140
1.0
102
RTVSPost2010PropOp52
 70
     0
102
RTVSPost2010Prop53
 90
        2
102
RTVSPost2010PropOp53
 70
     1
102
RTVSPost2010Prop54
  1
strokes_ogs.tif
102
RTVSPost2010PropOp54
 70
     1
102
RTVSPost2010Prop55
280
     0
102
RTVSPost2010PropOp55
 70
     1
102
RTVSPost2010Prop56
140
1.0
102
RTVSPost2010PropOp56
 70
     1
102
RTVSPost2010Prop57
140
1.0
102
RTVSPost2010PropOp57
 70
     1
  0
XRECORD
  5
3E9
102
{ACAD_REACTORS
330
3E8
102
}
330
3E8
100
AcDbXrecord
280
     1
102
RTVSPropertyOp0
 70
     1
102
RTVSPropertyOp1
 70
     1
102
RTVSPropertyOp2
 70
     1
102
RTVSPropertyOp3
 70
     1
102
RTVSPropertyOp4
 70
     1
102
RTVSPropertyOp5
 70
     1
102
RTVSPropertyOp6
 70
     1
102
RTVSPropertyOp7
 70
     1
102
RTVSPropertyOp8
 70
     1
102
RTVSPropertyOp9
 70
     1
102
RTVSPropertyOp10
 70
     1
102
RTVSPropertyOp11
 70
     1
102
RTVSPropertyOp12
 70
     1
102
RTVSPropertyOp13
 70
     1
102
RTVSPropertyOp14
 70
     1
102
RTVSPropertyOp15
 70
     1
102
RTVSPropertyOp16
 70
     1
102
RTVSPropertyOp17
 70
     1
102
RTVSPropertyOp18
 70
     1
102
RTVSPropertyOp19
 70
     1
102
RTVSPropertyOp20
 70
     1
102
RTVSPropertyOp21
 70
     1
102
RTVSPropertyOp22
 70
     1
102
RTVSPropertyOp23
 70
     1
102
RTVSPropertyOp24
 70
     1
102
RTVSPropertyOp25
 70
     1
102
RTVSPropertyOp26
 70
     1
102
RTVSPropertyOp27
 70
     1
102
RTVSPropertyOp28
 70
     1
102
RTVSPropertyOp29
 70
     1
102
RTVSPropertyOp30
 70
     1
102
RTVSPropertyOp31
 70
     1
102
RTVSPropertyOp32
 70
     1
102
RTVSPropertyOp33
 70
     1
102
RTVSPropertyOp34
 70
     1
102
RTVSPropertyOp35
 70
     1
102
RTVSPropertyOp36
 70
     1
102
RTVSPropertyOp37
 70
     1
102
RTVSPropertyOp38
 70
     1
102
RTVSPropertyOp39
 70
     1
102
RTVSPropertyOp40
 70
     1
102
RTVSPropertyOp41
 70
     1
102
RTVSPropertyOp42
 70
     1
102
RTVSPropertyOp43
 70
     1
102
RTVSPropertyOp44
 70
     1
102
RTVSPropertyOp45
 70
     1
102
RTVSPropertyOp46
 70
     1
102
RTVSPropertyOp47
 70
     1
102
RTVSPropertyOp48
 70
     1
102
RTVSPropertyOp49
 70
     1
102
RTVSPropertyOp50
 70
     1
102
RTVSPropertyOp51
 70
     0
102
RTVSPropertyOp52
 70
     0
102
RTVSPropertyOp53
 70
     1
102
RTVSPropertyOp54
 70
     1
102
RTVSPropertyOp55
 70
     1
102
RTVSPropertyOp56
 70
     1
102
RTVSPropertyOp57
 70
     1
102
RTVSPost2010Prop28
280
     0
102
RTVSPost2010PropOp28
 70
     1
102
RTVSPost2010Prop29
280
     1
102
RTVSPost2010PropOp29
 70
     1
102
RTVSPost2010Prop30
280
     1
102
RTVSPost2010PropOp30
 70
     1
102
RTVSPost2010Prop31
280
     0
102
RTVSPost2010PropOp31
 70
     1
102
RTVSPost2010Prop32
280
     0
102
RTVSPost2010PropOp32
 70
     1
102
RTVSPost2010Prop33
280
     0
102
RTVSPost2010PropOp33
 70
     1
102
RTVSPost2010Prop34
280
     0
102
RTVSPost2010PropOp34
 70
     1
102
RTVSPost2010Prop35
280
     0
102
RTVSPost2010PropOp35
 70
     1
102
RTVSPost2010Prop36
280
     0
102
RTVSPost2010PropOp36
 70
     1
102
RTVSPost2010Prop37
 90
       50
102
RTVSPost2010PropOp37
 70
     1
102
RTVSPost2010Prop38
140
0.0
102
RTVSPost2010PropOp38
 70
     1
102
RTVSPost2010Prop39
140
1.0
102
RTVSPost2010PropOp39
 70
     1
102
RTVSPost2010Prop40
 90
        0
102
RTVSPost2010PropOp40
 70
     1
102
RTVSPost2010Prop41ColorIndex
 90
       18
102
RTVSPost2010Prop41ColorRGB
 90
        0
102
RTVSPost2010PropOp41
 70
     1
102
RTVSPost2010Prop42
 90
       50
102
RTVSPost2010PropOp42
 70
     1
102
RTVSPost2010Prop43
 90
        3
102
RTVSPost2010PropOp43
 70
     1
102
RTVSPost2010Prop44ColorIndex
 90
        5
102
RTVSPost2010Prop44ColorRGB
 90
      255
102
RTVSPost2010PropOp44
 70
     1
102
RTVSPost2010Prop45
280
     0
102
RTVSPost2010PropOp45
 70
     1
102
RTVSPost2010Prop46
 90
       50
102
RTVSPost2010PropOp46
 70
     1
102
RTVSPost2010Prop47
 90
       50
102
RTVSPost2010PropOp47
 70
     1
102
RTVSPost2010Prop48
 90
       50
102
RTVSPost2010PropOp48
 70
     1
102
RTVSPost2010Prop49
280
     0
102
RTVSPost2010PropOp49
 70
     1
102
RTVSPost2010Prop50
 90
       50
102
RTVSPost2010PropOp50
 70
     1
102
RTVSPost2010Prop51ColorIndex
 90
      256
102
RTVSPost2010Prop51ColorRGB
 90
-16777216
102
RTVSPost2010PropOp51
 70
     0
102
RTVSPost2010Prop52
140
1.0
102
RTVSPost2010PropOp52
 70
     0
102
RTVSPost2010Prop53
 90
        2
102
RTVSPost2010PropOp53
 70
     1
102
RTVSPost2010Prop54
  1
strokes_ogs.tif
102
RTVSPost2010PropOp54
 70
     1
102
RTVSPost2010Prop55
280
     0
102
RTVSPost2010PropOp55
 70
     1
102
RTVSPost2010Prop56
140
1.0
102
RTVSPost2010PropOp56
 70
     1
102
RTVSPost2010Prop57
140
1.0
102
RTVSPost2010PropOp57
 70
     1
  0
XRECORD
  5
3EF
102
{ACAD_REACTORS
330
3EE
102
}
330
3EE
100
AcDbXrecord
280
     1
102
RTVSPropertyOp0
 70
     1
102
RTVSPropertyOp1
 70
     1
102
RTVSPropertyOp2
 70
     1
102
RTVSPropertyOp3
 70
     1
102
RTVSPropertyOp4
 70
     1
102
RTVSPropertyOp5
 70
     1
102
RTVSPropertyOp6
 70
     1
102
RTVSPropertyOp7
 70
     1
102
RTVSPropertyOp8
 70
     1
102
RTVSPropertyOp9
 70
     1
102
RTVSPropertyOp10
 70
     1
102
RTVSPropertyOp11
 70
     1
102
RTVSPropertyOp12
 70
     1
102
RTVSPropertyOp13
 70
     1
102
RTVSPropertyOp14
 70
     1
102
RTVSPropertyOp15
 70
     1
102
RTVSPropertyOp16
 70
     1
102
RTVSPropertyOp17
 70
     1
102
RTVSPropertyOp18
 70
     1
102
RTVSPropertyOp19
 70
     1
102
RTVSPropertyOp20
 70
     1
102
RTVSPropertyOp21
 70
     1
102
RTVSPropertyOp22
 70
     1
102
RTVSPropertyOp23
 70
     1
102
RTVSPropertyOp24
 70
     1
102
RTVSPropertyOp25
 70
     1
102
RTVSPropertyOp26
 70
     1
102
RTVSPropertyOp27
 70
     1
102
RTVSPropertyOp28
 70
     1
102
RTVSPropertyOp29
 70
     1
102
RTVSPropertyOp30
 70
     1
102
RTVSPropertyOp31
 70
     1
102
RTVSPropertyOp32
 70
     1
102
RTVSPropertyOp33
 70
     1
102
RTVSPropertyOp34
 70
     1
102
RTVSPropertyOp35
 70
     1
102
RTVSPropertyOp36
 70
     1
102
RTVSPropertyOp37
 70
     1
102
RTVSPropertyOp38
 70
     1
102
RTVSPropertyOp39
 70
     1
102
RTVSPropertyOp40
 70
     1
102
RTVSPropertyOp41
 70
     1
102
RTVSPropertyOp42
 70
     1
102
RTVSPropertyOp43
 70
     1
102
RTVSPropertyOp44
 70
     1
102
RTVSPropertyOp45
 70
     1
102
RTVSPropertyOp46
 70
     1
102
RTVSPropertyOp47
 70
     1
102
RTVSPropertyOp48
 70
     1
102
RTVSPropertyOp49
 70
     1
102
RTVSPropertyOp50
 70
     1
102
RTVSPropertyOp51
 70
     0
102
RTVSPropertyOp52
 70
     0
102
RTVSPropertyOp53
 70
     1
102
RTVSPropertyOp54
 70
     1
102
RTVSPropertyOp55
 70
     1
102
RTVSPropertyOp56
 70
     1
102
RTVSPropertyOp57
 70
     1
102
RTVSPost2010Prop28
280
     0
102
RTVSPost2010PropOp28
 70
     1
102
RTVSPost2010Prop29
280
     1
102
RTVSPost2010PropOp29
 70
     1
102
RTVSPost2010Prop30
280
     1
102
RTVSPost2010PropOp30
 70
     1
102
RTVSPost2010Prop31
280
     0
102
RTVSPost2010PropOp31
 70
     1
102
RTVSPost2010Prop32
280
     0
102
RTVSPost2010PropOp32
 70
     1
102
RTVSPost2010Prop33
280
     0
102
RTVSPost2010PropOp33
 70
     1
102
RTVSPost2010Prop34
280
     0
102
RTVSPost2010PropOp34
 70
     1
102
RTVSPost2010Prop35
280
     0
102
RTVSPost2010PropOp35
 70
     1
102
RTVSPost2010Prop36
280
     0
102
RTVSPost2010PropOp36
 70
     1
102
RTVSPost2010Prop37
 90
       50
102
RTVSPost2010PropOp37
 70
     1
102
RTVSPost2010Prop38
140
0.0
102
RTVSPost2010PropOp38
 70
     1
102
RTVSPost2010Prop39
140
1.0
102
RTVSPost2010PropOp39
 70
     1
102
RTVSPost2010Prop40
 90
        0
102
RTVSPost2010PropOp40
 70
     1
102
RTVSPost2010Prop41ColorIndex
 90
       18
102
RTVSPost2010Prop41ColorRGB
 90
        0
102
RTVSPost2010PropOp41
 70
     1
102
RTVSPost2010Prop42
 90
       50
102
RTVSPost2010PropOp42
 70
     1
102
RTVSPost2010Prop43
 90
        3
102
RTVSPost2010PropOp43
 70
     1
102
RTVSPost2010Prop44ColorIndex
 90
        5
102
RTVSPost2010Prop44ColorRGB
 90
      255
102
RTVSPost2010PropOp44
 70
     1
102
RTVSPost2010Prop45
280
     0
102
RTVSPost2010PropOp45
 70
     1
102
RTVSPost2010Prop46
 90
       50
102
RTVSPost2010PropOp46
 70
     1
102
RTVSPost2010Prop47
 90
       50
102
RTVSPost2010PropOp47
 70
     1
102
RTVSPost2010Prop48
 90
       50
102
RTVSPost2010PropOp48
 70
     1
102
RTVSPost2010Prop49
280
     0
102
RTVSPost2010PropOp49
 70
     1
102
RTVSPost2010Prop50
 90
       50
102
RTVSPost2010PropOp50
 70
     1
102
RTVSPost2010Prop51ColorIndex
 90
      256
102
RTVSPost2010Prop51ColorRGB
 90
-16777216
102
RTVSPost2010PropOp51
 70
     0
102
RTVSPost2010Prop52
140
1.0
102
RTVSPost2010PropOp52
 70
     0
102
RTVSPost2010Prop53
 90
        2
102
RTVSPost2010PropOp53
 70
     1
102
RTVSPost2010Prop54
  1
strokes_ogs.tif
102
RTVSPost2010PropOp54
 70
     1
102
RTVSPost2010Prop55
280
     0
102
RTVSPost2010PropOp55
 70
     1
102
RTVSPost2010Prop56
140
1.0
102
RTVSPost2010PropOp56
 70
     1
102
RTVSPost2010Prop57
140
1.0
102
RTVSPost2010PropOp57
 70
     1
  0
XRECORD
  5
403
102
{ACAD_REACTORS
330
402
102
}
330
402
100
AcDbXrecord
280
     1
102
RTVSPropertyOp0
 70
     0
102
RTVSPropertyOp1
 70
     0
102
RTVSPropertyOp2
 70
     0
102
RTVSPropertyOp3
 70
     0
102
RTVSPropertyOp4
 70
     0
102
RTVSPropertyOp5
 70
     0
102
RTVSPropertyOp6
 70
     0
102
RTVSPropertyOp7
 70
     0
102
RTVSPropertyOp8
 70
     0
102
RTVSPropertyOp9
 70
     0
102
RTVSPropertyOp10
 70
     0
102
RTVSPropertyOp11
 70
     0
102
RTVSPropertyOp12
 70
     0
102
RTVSPropertyOp13
 70
     0
102
RTVSPropertyOp14
 70
     2
102
RTVSPropertyOp15
 70
     0
102
RTVSPropertyOp16
 70
     0
102
RTVSPropertyOp17
 70
     0
102
RTVSPropertyOp18
 70
     0
102
RTVSPropertyOp19
 70
     0
102
RTVSPropertyOp20
 70
     0
102
RTVSPropertyOp21
 70
     0
102
RTVSPropertyOp22
 70
     0
102
RTVSPropertyOp23
 70
     0
102
RTVSPropertyOp24
 70
     0
102
RTVSPropertyOp25
 70
     0
102
RTVSPropertyOp26
 70
     0
102
RTVSPropertyOp27
 70
     0
102
RTVSPropertyOp28
 70
     0
102
RTVSPropertyOp29
 70
     0
102
RTVSPropertyOp30
 70
     0
102
RTVSPropertyOp31
 70
     0
102
RTVSPropertyOp32
 70
     0
102
RTVSPropertyOp33
 70
     0
102
RTVSPropertyOp34
 70
     0
102
RTVSPropertyOp35
 70
     0
102
RTVSPropertyOp36
 70
     0
102
RTVSPropertyOp37
 70
     0
102
RTVSPropertyOp38
 70
     0
102
RTVSPropertyOp39
 70
     0
102
RTVSPropertyOp40
 70
     0
102
RTVSPropertyOp41
 70
     0
102
RTVSPropertyOp42
 70
     0
102
RTVSPropertyOp43
 70
     0
102
RTVSPropertyOp44
 70
     0
102
RTVSPropertyOp45
 70
     0
102
RTVSPropertyOp46
 70
     0
102
RTVSPropertyOp47
 70
     0
102
RTVSPropertyOp48
 70
     0
102
RTVSPropertyOp49
 70
     0
102
RTVSPropertyOp50
 70
     0
102
RTVSPropertyOp51
 70
     0
102
RTVSPropertyOp52
 70
     0
102
RTVSPropertyOp53
 70
     0
102
RTVSPropertyOp54
 70
     0
102
RTVSPropertyOp55
 70
     0
102
RTVSPropertyOp56
 70
     0
102
RTVSPropertyOp57
 70
     0
102
RTVSPost2010Prop28
280
     0
102
RTVSPost2010PropOp28
 70
     0
102
RTVSPost2010Prop29
280
     1
102
RTVSPost2010PropOp29
 70
     0
102
RTVSPost2010Prop30
280
     1
102
RTVSPost2010PropOp30
 70
     0
102
RTVSPost2010Prop31
280
     0
102
RTVSPost2010PropOp31
 70
     0
102
RTVSPost2010Prop32
280
     0
102
RTVSPost2010PropOp32
 70
     0
102
RTVSPost2010Prop33
280
     0
102
RTVSPost2010PropOp33
 70
     0
102
RTVSPost2010Prop34
280
     0
102
RTVSPost2010PropOp34
 70
     0
102
RTVSPost2010Prop35
280
     0
102
RTVSPost2010PropOp35
 70
     0
102
RTVSPost2010Prop36
280
     0
102
RTVSPost2010PropOp36
 70
     0
102
RTVSPost2010Prop37
 90
       50
102
RTVSPost2010PropOp37
 70
     0
102
RTVSPost2010Prop38
140
0.0
102
RTVSPost2010PropOp38
 70
     0
102
RTVSPost2010Prop39
140
1.0
102
RTVSPost2010PropOp39
 70
     0
102
RTVSPost2010Prop40
 90
        0
102
RTVSPost2010PropOp40
 70
     0
102
RTVSPost2010Prop41ColorIndex
 90
       18
102
RTVSPost2010Prop41ColorRGB
 90
        0
102
RTVSPost2010PropOp41
 70
     0
102
RTVSPost2010Prop42
 90
       50
102
RTVSPost2010PropOp42
 70
     0
102
RTVSPost2010Prop43
 90
        3
102
RTVSPost2010PropOp43
 70
     0
102
RTVSPost2010Prop44ColorIndex
 90
        5
102
RTVSPost2010Prop44ColorRGB
 90
      255
102
RTVSPost2010PropOp44
 70
     0
102
RTVSPost2010Prop45
280
     0
102
RTVSPost2010PropOp45
 70
     0
102
RTVSPost2010Prop46
 90
       50
102
RTVSPost2010PropOp46
 70
     0
102
RTVSPost2010Prop47
 90
       50
102
RTVSPost2010PropOp47
 70
     0
102
RTVSPost2010Prop48
 90
       50
102
RTVSPost2010PropOp48
 70
     0
102
RTVSPost2010Prop49
280
     0
102
RTVSPost2010PropOp49
 70
     0
102
RTVSPost2010Prop50
 90
       50
102
RTVSPost2010PropOp50
 70
     0
102
RTVSPost2010Prop51ColorIndex
 90
      256
102
RTVSPost2010Prop51ColorRGB
 90
-16777216
102
RTVSPost2010PropOp51
 70
     0
102
RTVSPost2010Prop52
140
1.0
102
RTVSPost2010PropOp52
 70
     0
102
RTVSPost2010Prop53
 90
        2
102
RTVSPost2010PropOp53
 70
     0
102
RTVSPost2010Prop54
  1
strokes_ogs.tif
102
RTVSPost2010PropOp54
 70
     0
102
RTVSPost2010Prop55
280
     0
102
RTVSPost2010PropOp55
 70
     0
102
RTVSPost2010Prop56
140
1.0
102
RTVSPost2010PropOp56
 70
     0
102
RTVSPost2010Prop57
140
1.0
102
RTVSPost2010PropOp57
 70
     0
  0
XRECORD
  5
3FD
102
{ACAD_REACTORS
330
3FC
102
}
330
3FC
100
AcDbXrecord
280
     1
102
RTVSPropertyOp0
 70
     1
102
RTVSPropertyOp1
 70
     1
102
RTVSPropertyOp2
 70
     1
102
RTVSPropertyOp3
 70
     1
102
RTVSPropertyOp4
 70
     1
102
RTVSPropertyOp5
 70
     1
102
RTVSPropertyOp6
 70
     1
102
RTVSPropertyOp7
 70
     1
102
RTVSPropertyOp8
 70
     1
102
RTVSPropertyOp9
 70
     1
102
RTVSPropertyOp10
 70
     1
102
RTVSPropertyOp11
 70
     1
102
RTVSPropertyOp12
 70
     1
102
RTVSPropertyOp13
 70
     1
102
RTVSPropertyOp14
 70
     1
102
RTVSPropertyOp15
 70
     1
102
RTVSPropertyOp16
 70
     1
102
RTVSPropertyOp17
 70
     1
102
RTVSPropertyOp18
 70
     1
102
RTVSPropertyOp19
 70
     1
102
RTVSPropertyOp20
 70
     1
102
RTVSPropertyOp21
 70
     1
102
RTVSPropertyOp22
 70
     1
102
RTVSPropertyOp23
 70
     1
102
RTVSPropertyOp24
 70
     1
102
RTVSPropertyOp25
 70
     1
102
RTVSPropertyOp26
 70
     1
102
RTVSPropertyOp27
 70
     1
102
RTVSPropertyOp28
 70
     1
102
RTVSPropertyOp29
 70
     1
102
RTVSPropertyOp30
 70
     1
102
RTVSPropertyOp31
 70
     1
102
RTVSPropertyOp32
 70
     1
102
RTVSPropertyOp33
 70
     1
102
RTVSPropertyOp34
 70
     1
102
RTVSPropertyOp35
 70
     1
102
RTVSPropertyOp36
 70
     1
102
RTVSPropertyOp37
 70
     1
102
RTVSPropertyOp38
 70
     1
102
RTVSPropertyOp39
 70
     1
102
RTVSPropertyOp40
 70
     1
102
RTVSPropertyOp41
 70
     1
102
RTVSPropertyOp42
 70
     1
102
RTVSPropertyOp43
 70
     1
102
RTVSPropertyOp44
 70
     1
102
RTVSPropertyOp45
 70
     1
102
RTVSPropertyOp46
 70
     1
102
RTVSPropertyOp47
 70
     1
102
RTVSPropertyOp48
 70
     1
102
RTVSPropertyOp49
 70
     1
102
RTVSPropertyOp50
 70
     1
102
RTVSPropertyOp51
 70
     0
102
RTVSPropertyOp52
 70
     0
102
RTVSPropertyOp53
 70
     1
102
RTVSPropertyOp54
 70
     1
102
RTVSPropertyOp55
 70
     1
102
RTVSPropertyOp56
 70
     1
102
RTVSPropertyOp57
 70
     1
102
RTVSPost2010Prop28
280
     0
102
RTVSPost2010PropOp28
 70
     1
102
RTVSPost2010Prop29
280
     1
102
RTVSPost2010PropOp29
 70
     1
102
RTVSPost2010Prop30
280
     1
102
RTVSPost2010PropOp30
 70
     1
102
RTVSPost2010Prop31
280
     0
102
RTVSPost2010PropOp31
 70
     1
102
RTVSPost2010Prop32
280
     0
102
RTVSPost2010PropOp32
 70
     1
102
RTVSPost2010Prop33
280
     0
102
RTVSPost2010PropOp33
 70
     1
102
RTVSPost2010Prop34
280
     0
102
RTVSPost2010PropOp34
 70
     1
102
RTVSPost2010Prop35
280
     0
102
RTVSPost2010PropOp35
 70
     1
102
RTVSPost2010Prop36
280
     0
102
RTVSPost2010PropOp36
 70
     1
102
RTVSPost2010Prop37
 90
       50
102
RTVSPost2010PropOp37
 70
     1
102
RTVSPost2010Prop38
140
0.0
102
RTVSPost2010PropOp38
 70
     1
102
RTVSPost2010Prop39
140
1.0
102
RTVSPost2010PropOp39
 70
     1
102
RTVSPost2010Prop40
 90
        0
102
RTVSPost2010PropOp40
 70
     1
102
RTVSPost2010Prop41ColorIndex
 90
       18
102
RTVSPost2010Prop41ColorRGB
 90
        0
102
RTVSPost2010PropOp41
 70
     1
102
RTVSPost2010Prop42
 90
       50
102
RTVSPost2010PropOp42
 70
     1
102
RTVSPost2010Prop43
 90
        3
102
RTVSPost2010PropOp43
 70
     1
102
RTVSPost2010Prop44ColorIndex
 90
        5
102
RTVSPost2010Prop44ColorRGB
 90
      255
102
RTVSPost2010PropOp44
 70
     1
102
RTVSPost2010Prop45
280
     0
102
RTVSPost2010PropOp45
 70
     1
102
RTVSPost2010Prop46
 90
       50
102
RTVSPost2010PropOp46
 70
     1
102
RTVSPost2010Prop47
 90
       50
102
RTVSPost2010PropOp47
 70
     1
102
RTVSPost2010Prop48
 90
       50
102
RTVSPost2010PropOp48
 70
     1
102
RTVSPost2010Prop49
280
     0
102
RTVSPost2010PropOp49
 70
     1
102
RTVSPost2010Prop50
 90
       50
102
RTVSPost2010PropOp50
 70
     1
102
RTVSPost2010Prop51ColorIndex
 90
      256
102
RTVSPost2010Prop51ColorRGB
 90
-16777216
102
RTVSPost2010PropOp51
 70
     0
102
RTVSPost2010Prop52
140
1.0
102
RTVSPost2010PropOp52
 70
     0
102
RTVSPost2010Prop53
 90
        2
102
RTVSPost2010PropOp53
 70
     1
102
RTVSPost2010Prop54
  1
strokes_ogs.tif
102
RTVSPost2010PropOp54
 70
     1
102
RTVSPost2010Prop55
280
     0
102
RTVSPost2010PropOp55
 70
     1
102
RTVSPost2010Prop56
140
1.0
102
RTVSPost2010PropOp56
 70
     1
102
RTVSPost2010Prop57
140
1.0
102
RTVSPost2010PropOp57
 70
     1
  0
XRECORD
  5
405
102
{ACAD_REACTORS
330
404
102
}
330
404
100
AcDbXrecord
280
     1
102
RTVSPropertyOp0
 70
     0
102
RTVSPropertyOp1
 70
     0
102
RTVSPropertyOp2
 70
     0
102
RTVSPropertyOp3
 70
     0
102
RTVSPropertyOp4
 70
     0
102
RTVSPropertyOp5
 70
     0
102
RTVSPropertyOp6
 70
     0
102
RTVSPropertyOp7
 70
     0
102
RTVSPropertyOp8
 70
     0
102
RTVSPropertyOp9
 70
     0
102
RTVSPropertyOp10
 70
     0
102
RTVSPropertyOp11
 70
     0
102
RTVSPropertyOp12
 70
     0
102
RTVSPropertyOp13
 70
     0
102
RTVSPropertyOp14
 70
     2
102
RTVSPropertyOp15
 70
     0
102
RTVSPropertyOp16
 70
     0
102
RTVSPropertyOp17
 70
     0
102
RTVSPropertyOp18
 70
     0
102
RTVSPropertyOp19
 70
     0
102
RTVSPropertyOp20
 70
     0
102
RTVSPropertyOp21
 70
     0
102
RTVSPropertyOp22
 70
     0
102
RTVSPropertyOp23
 70
     0
102
RTVSPropertyOp24
 70
     0
102
RTVSPropertyOp25
 70
     0
102
RTVSPropertyOp26
 70
     0
102
RTVSPropertyOp27
 70
     0
102
RTVSPropertyOp28
 70
     0
102
RTVSPropertyOp29
 70
     0
102
RTVSPropertyOp30
 70
     0
102
RTVSPropertyOp31
 70
     0
102
RTVSPropertyOp32
 70
     0
102
RTVSPropertyOp33
 70
     0
102
RTVSPropertyOp34
 70
     0
102
RTVSPropertyOp35
 70
     0
102
RTVSPropertyOp36
 70
     0
102
RTVSPropertyOp37
 70
     0
102
RTVSPropertyOp38
 70
     0
102
RTVSPropertyOp39
 70
     0
102
RTVSPropertyOp40
 70
     0
102
RTVSPropertyOp41
 70
     0
102
RTVSPropertyOp42
 70
     0
102
RTVSPropertyOp43
 70
     0
102
RTVSPropertyOp44
 70
     0
102
RTVSPropertyOp45
 70
     0
102
RTVSPropertyOp46
 70
     0
102
RTVSPropertyOp47
 70
     0
102
RTVSPropertyOp48
 70
     0
102
RTVSPropertyOp49
 70
     0
102
RTVSPropertyOp50
 70
     0
102
RTVSPropertyOp51
 70
     0
102
RTVSPropertyOp52
 70
     0
102
RTVSPropertyOp53
 70
     0
102
RTVSPropertyOp54
 70
     0
102
RTVSPropertyOp55
 70
     0
102
RTVSPropertyOp56
 70
     0
102
RTVSPropertyOp57
 70
     0
102
RTVSPost2010Prop28
280
     0
102
RTVSPost2010PropOp28
 70
     0
102
RTVSPost2010Prop29
280
     1
102
RTVSPost2010PropOp29
 70
     0
102
RTVSPost2010Prop30
280
     1
102
RTVSPost2010PropOp30
 70
     0
102
RTVSPost2010Prop31
280
     0
102
RTVSPost2010PropOp31
 70
     0
102
RTVSPost2010Prop32
280
     0
102
RTVSPost2010PropOp32
 70
     0
102
RTVSPost2010Prop33
280
     0
102
RTVSPost2010PropOp33
 70
     0
102
RTVSPost2010Prop34
280
     0
102
RTVSPost2010PropOp34
 70
     0
102
RTVSPost2010Prop35
280
     0
102
RTVSPost2010PropOp35
 70
     0
102
RTVSPost2010Prop36
280
     0
102
RTVSPost2010PropOp36
 70
     0
102
RTVSPost2010Prop37
 90
       50
102
RTVSPost2010PropOp37
 70
     0
102
RTVSPost2010Prop38
140
0.0
102
RTVSPost2010PropOp38
 70
     0
102
RTVSPost2010Prop39
140
1.0
102
RTVSPost2010PropOp39
 70
     0
102
RTVSPost2010Prop40
 90
        0
102
RTVSPost2010PropOp40
 70
     0
102
RTVSPost2010Prop41ColorIndex
 90
       18
102
RTVSPost2010Prop41ColorRGB
 90
        0
102
RTVSPost2010PropOp41
 70
     0
102
RTVSPost2010Prop42
 90
       50
102
RTVSPost2010PropOp42
 70
     0
102
RTVSPost2010Prop43
 90
        3
102
RTVSPost2010PropOp43
 70
     0
102
RTVSPost2010Prop44ColorIndex
 90
        5
102
RTVSPost2010Prop44ColorRGB
 90
      255
102
RTVSPost2010PropOp44
 70
     0
102
RTVSPost2010Prop45
280
     0
102
RTVSPost2010PropOp45
 70
     0
102
RTVSPost2010Prop46
 90
       50
102
RTVSPost2010PropOp46
 70
     0
102
RTVSPost2010Prop47
 90
       50
102
RTVSPost2010PropOp47
 70
     0
102
RTVSPost2010Prop48
 90
       50
102
RTVSPost2010PropOp48
 70
     0
102
RTVSPost2010Prop49
280
     0
102
RTVSPost2010PropOp49
 70
     0
102
RTVSPost2010Prop50
 90
       50
102
RTVSPost2010PropOp50
 70
     0
102
RTVSPost2010Prop51ColorIndex
 90
      256
102
RTVSPost2010Prop51ColorRGB
 90
-16777216
102
RTVSPost2010PropOp51
 70
     0
102
RTVSPost2010Prop52
140
1.0
102
RTVSPost2010PropOp52
 70
     0
102
RTVSPost2010Prop53
 90
        2
102
RTVSPost2010PropOp53
 70
     0
102
RTVSPost2010Prop54
  1
strokes_ogs.tif
102
RTVSPost2010PropOp54
 70
     0
102
RTVSPost2010Prop55
280
     0
102
RTVSPost2010PropOp55
 70
     0
102
RTVSPost2010Prop56
140
1.0
102
RTVSPost2010PropOp56
 70
     0
102
RTVSPost2010Prop57
140
1.0
102
RTVSPost2010PropOp57
 70
     0
  0
XRECORD
  5
3F3
102
{ACAD_REACTORS
330
3F2
102
}
330
3F2
100
AcDbXrecord
280
     1
102
RTVSPropertyOp0
 70
     1
102
RTVSPropertyOp1
 70
     1
102
RTVSPropertyOp2
 70
     1
102
RTVSPropertyOp3
 70
     1
102
RTVSPropertyOp4
 70
     1
102
RTVSPropertyOp5
 70
     1
102
RTVSPropertyOp6
 70
     1
102
RTVSPropertyOp7
 70
     1
102
RTVSPropertyOp8
 70
     1
102
RTVSPropertyOp9
 70
     1
102
RTVSPropertyOp10
 70
     1
102
RTVSPropertyOp11
 70
     1
102
RTVSPropertyOp12
 70
     1
102
RTVSPropertyOp13
 70
     1
102
RTVSPropertyOp14
 70
     1
102
RTVSPropertyOp15
 70
     1
102
RTVSPropertyOp16
 70
     1
102
RTVSPropertyOp17
 70
     1
102
RTVSPropertyOp18
 70
     1
102
RTVSPropertyOp19
 70
     1
102
RTVSPropertyOp20
 70
     1
102
RTVSPropertyOp21
 70
     1
102
RTVSPropertyOp22
 70
     1
102
RTVSPropertyOp23
 70
     1
102
RTVSPropertyOp24
 70
     1
102
RTVSPropertyOp25
 70
     1
102
RTVSPropertyOp26
 70
     1
102
RTVSPropertyOp27
 70
     1
102
RTVSPropertyOp28
 70
     1
102
RTVSPropertyOp29
 70
     1
102
RTVSPropertyOp30
 70
     1
102
RTVSPropertyOp31
 70
     1
102
RTVSPropertyOp32
 70
     1
102
RTVSPropertyOp33
 70
     1
102
RTVSPropertyOp34
 70
     1
102
RTVSPropertyOp35
 70
     1
102
RTVSPropertyOp36
 70
     1
102
RTVSPropertyOp37
 70
     1
102
RTVSPropertyOp38
 70
     1
102
RTVSPropertyOp39
 70
     1
102
RTVSPropertyOp40
 70
     1
102
RTVSPropertyOp41
 70
     1
102
RTVSPropertyOp42
 70
     1
102
RTVSPropertyOp43
 70
     1
102
RTVSPropertyOp44
 70
     1
102
RTVSPropertyOp45
 70
     1
102
RTVSPropertyOp46
 70
     1
102
RTVSPropertyOp47
 70
     1
102
RTVSPropertyOp48
 70
     1
102
RTVSPropertyOp49
 70
     1
102
RTVSPropertyOp50
 70
     1
102
RTVSPropertyOp51
 70
     0
102
RTVSPropertyOp52
 70
     0
102
RTVSPropertyOp53
 70
     1
102
RTVSPropertyOp54
 70
     1
102
RTVSPropertyOp55
 70
     1
102
RTVSPropertyOp56
 70
     1
102
RTVSPropertyOp57
 70
     1
102
RTVSPost2010Prop28
280
     0
102
RTVSPost2010PropOp28
 70
     1
102
RTVSPost2010Prop29
280
     1
102
RTVSPost2010PropOp29
 70
     1
102
RTVSPost2010Prop30
280
     1
102
RTVSPost2010PropOp30
 70
     1
102
RTVSPost2010Prop31
280
     0
102
RTVSPost2010PropOp31
 70
     1
102
RTVSPost2010Prop32
280
     0
102
RTVSPost2010PropOp32
 70
     1
102
RTVSPost2010Prop33
280
     0
102
RTVSPost2010PropOp33
 70
     1
102
RTVSPost2010Prop34
280
     0
102
RTVSPost2010PropOp34
 70
     1
102
RTVSPost2010Prop35
280
     0
102
RTVSPost2010PropOp35
 70
     1
102
RTVSPost2010Prop36
280
     0
102
RTVSPost2010PropOp36
 70
     1
102
RTVSPost2010Prop37
 90
       50
102
RTVSPost2010PropOp37
 70
     1
102
RTVSPost2010Prop38
140
0.0
102
RTVSPost2010PropOp38
 70
     1
102
RTVSPost2010Prop39
140
1.0
102
RTVSPost2010PropOp39
 70
     1
102
RTVSPost2010Prop40
 90
        0
102
RTVSPost2010PropOp40
 70
     1
102
RTVSPost2010Prop41ColorIndex
 90
       18
102
RTVSPost2010Prop41ColorRGB
 90
        0
102
RTVSPost2010PropOp41
 70
     1
102
RTVSPost2010Prop42
 90
       50
102
RTVSPost2010PropOp42
 70
     1
102
RTVSPost2010Prop43
 90
        3
102
RTVSPost2010PropOp43
 70
     1
102
RTVSPost2010Prop44ColorIndex
 90
        5
102
RTVSPost2010Prop44ColorRGB
 90
      255
102
RTVSPost2010PropOp44
 70
     1
102
RTVSPost2010Prop45
280
     0
102
RTVSPost2010PropOp45
 70
     1
102
RTVSPost2010Prop46
 90
       50
102
RTVSPost2010PropOp46
 70
     1
102
RTVSPost2010Prop47
 90
       50
102
RTVSPost2010PropOp47
 70
     1
102
RTVSPost2010Prop48
 90
       50
102
RTVSPost2010PropOp48
 70
     1
102
RTVSPost2010Prop49
280
     0
102
RTVSPost2010PropOp49
 70
     1
102
RTVSPost2010Prop50
 90
       50
102
RTVSPost2010PropOp50
 70
     1
102
RTVSPost2010Prop51ColorIndex
 90
      256
102
RTVSPost2010Prop51ColorRGB
 90
-16777216
102
RTVSPost2010PropOp51
 70
     0
102
RTVSPost2010Prop52
140
1.0
102
RTVSPost2010PropOp52
 70
     0
102
RTVSPost2010Prop53
 90
        2
102
RTVSPost2010PropOp53
 70
     1
102
RTVSPost2010Prop54
  1
strokes_ogs.tif
102
RTVSPost2010PropOp54
 70
     1
102
RTVSPost2010Prop55
280
     0
102
RTVSPost2010PropOp55
 70
     1
102
RTVSPost2010Prop56
140
1.0
102
RTVSPost2010PropOp56
 70
     1
102
RTVSPost2010Prop57
140
1.0
102
RTVSPost2010PropOp57
 70
     1
  0
XRECORD
  5
411
102
{ACAD_REACTORS
330
410
102
}
330
410
100
AcDbXrecord
280
     1
102
RTVSPropertyOp0
 70
     1
102
RTVSPropertyOp1
 70
     1
102
RTVSPropertyOp2
 70
     1
102
RTVSPropertyOp3
 70
     1
102
RTVSPropertyOp4
 70
     1
102
RTVSPropertyOp5
 70
     1
102
RTVSPropertyOp6
 70
     1
102
RTVSPropertyOp7
 70
     1
102
RTVSPropertyOp8
 70
     1
102
RTVSPropertyOp9
 70
     1
102
RTVSPropertyOp10
 70
     1
102
RTVSPropertyOp11
 70
     1
102
RTVSPropertyOp12
 70
     1
102
RTVSPropertyOp13
 70
     1
102
RTVSPropertyOp14
 70
     1
102
RTVSPropertyOp15
 70
     1
102
RTVSPropertyOp16
 70
     1
102
RTVSPropertyOp17
 70
     1
102
RTVSPropertyOp18
 70
     1
102
RTVSPropertyOp19
 70
     1
102
RTVSPropertyOp20
 70
     1
102
RTVSPropertyOp21
 70
     1
102
RTVSPropertyOp22
 70
     1
102
RTVSPropertyOp23
 70
     1
102
RTVSPropertyOp24
 70
     1
102
RTVSPropertyOp25
 70
     1
102
RTVSPropertyOp26
 70
     1
102
RTVSPropertyOp27
 70
     1
102
RTVSPropertyOp28
 70
     1
102
RTVSPropertyOp29
 70
     1
102
RTVSPropertyOp30
 70
     1
102
RTVSPropertyOp31
 70
     1
102
RTVSPropertyOp32
 70
     1
102
RTVSPropertyOp33
 70
     1
102
RTVSPropertyOp34
 70
     1
102
RTVSPropertyOp35
 70
     1
102
RTVSPropertyOp36
 70
     1
102
RTVSPropertyOp37
 70
     1
102
RTVSPropertyOp38
 70
     1
102
RTVSPropertyOp39
 70
     1
102
RTVSPropertyOp40
 70
     1
102
RTVSPropertyOp41
 70
     1
102
RTVSPropertyOp42
 70
     1
102
RTVSPropertyOp43
 70
     1
102
RTVSPropertyOp44
 70
     1
102
RTVSPropertyOp45
 70
     1
102
RTVSPropertyOp46
 70
     1
102
RTVSPropertyOp47
 70
     1
102
RTVSPropertyOp48
 70
     1
102
RTVSPropertyOp49
 70
     1
102
RTVSPropertyOp50
 70
     1
102
RTVSPropertyOp51
 70
     0
102
RTVSPropertyOp52
 70
     0
102
RTVSPropertyOp53
 70
     1
102
RTVSPropertyOp54
 70
     1
102
RTVSPropertyOp55
 70
     1
102
RTVSPropertyOp56
 70
     1
102
RTVSPropertyOp57
 70
     1
102
RTVSPost2010Prop28
280
     0
102
RTVSPost2010PropOp28
 70
     1
102
RTVSPost2010Prop29
280
     1
102
RTVSPost2010PropOp29
 70
     1
102
RTVSPost2010Prop30
280
     1
102
RTVSPost2010PropOp30
 70
     1
102
RTVSPost2010Prop31
280
     0
102
RTVSPost2010PropOp31
 70
     1
102
RTVSPost2010Prop32
280
     0
102
RTVSPost2010PropOp32
 70
     1
102
RTVSPost2010Prop33
280
     0
102
RTVSPost2010PropOp33
 70
     1
102
RTVSPost2010Prop34
280
     0
102
RTVSPost2010PropOp34
 70
     1
102
RTVSPost2010Prop35
280
     0
102
RTVSPost2010PropOp35
 70
     1
102
RTVSPost2010Prop36
280
     0
102
RTVSPost2010PropOp36
 70
     1
102
RTVSPost2010Prop37
 90
       50
102
RTVSPost2010PropOp37
 70
     1
102
RTVSPost2010Prop38
140
0.0
102
RTVSPost2010PropOp38
 70
     1
102
RTVSPost2010Prop39
140
1.0
102
RTVSPost2010PropOp39
 70
     1
102
RTVSPost2010Prop40
 90
        0
102
RTVSPost2010PropOp40
 70
     1
102
RTVSPost2010Prop41ColorIndex
 90
       18
102
RTVSPost2010Prop41ColorRGB
 90
        0
102
RTVSPost2010PropOp41
 70
     1
102
RTVSPost2010Prop42
 90
       50
102
RTVSPost2010PropOp42
 70
     1
102
RTVSPost2010Prop43
 90
        3
102
RTVSPost2010PropOp43
 70
     1
102
RTVSPost2010Prop44ColorIndex
 90
        5
102
RTVSPost2010Prop44ColorRGB
 90
      255
102
RTVSPost2010PropOp44
 70
     1
102
RTVSPost2010Prop45
280
     0
102
RTVSPost2010PropOp45
 70
     1
102
RTVSPost2010Prop46
 90
       50
102
RTVSPost2010PropOp46
 70
     1
102
RTVSPost2010Prop47
 90
       50
102
RTVSPost2010PropOp47
 70
     1
102
RTVSPost2010Prop48
 90
       50
102
RTVSPost2010PropOp48
 70
     1
102
RTVSPost2010Prop49
280
     0
102
RTVSPost2010PropOp49
 70
     1
102
RTVSPost2010Prop50
 90
       50
102
RTVSPost2010PropOp50
 70
     1
102
RTVSPost2010Prop51ColorIndex
 90
      256
102
RTVSPost2010Prop51ColorRGB
 90
-16777216
102
RTVSPost2010PropOp51
 70
     0
102
RTVSPost2010Prop52
140
1.0
102
RTVSPost2010PropOp52
 70
     0
102
RTVSPost2010Prop53
 90
        2
102
RTVSPost2010PropOp53
 70
     1
102
RTVSPost2010Prop54
  1
strokes_ogs.tif
102
RTVSPost2010PropOp54
 70
     1
102
RTVSPost2010Prop55
280
     0
102
RTVSPost2010PropOp55
 70
     1
102
RTVSPost2010Prop56
140
1.0
102
RTVSPost2010PropOp56
 70
     1
102
RTVSPost2010Prop57
140
1.0
102
RTVSPost2010PropOp57
 70
     1
  0
XRECORD
  5
40F
102
{ACAD_REACTORS
330
40E
102
}
330
40E
100
AcDbXrecord
280
     1
102
RTVSPropertyOp0
 70
     1
102
RTVSPropertyOp1
 70
     1
102
RTVSPropertyOp2
 70
     1
102
RTVSPropertyOp3
 70
     1
102
RTVSPropertyOp4
 70
     1
102
RTVSPropertyOp5
 70
     1
102
RTVSPropertyOp6
 70
     1
102
RTVSPropertyOp7
 70
     1
102
RTVSPropertyOp8
 70
     1
102
RTVSPropertyOp9
 70
     1
102
RTVSPropertyOp10
 70
     1
102
RTVSPropertyOp11
 70
     1
102
RTVSPropertyOp12
 70
     1
102
RTVSPropertyOp13
 70
     1
102
RTVSPropertyOp14
 70
     1
102
RTVSPropertyOp15
 70
     1
102
RTVSPropertyOp16
 70
     1
102
RTVSPropertyOp17
 70
     1
102
RTVSPropertyOp18
 70
     1
102
RTVSPropertyOp19
 70
     1
102
RTVSPropertyOp20
 70
     1
102
RTVSPropertyOp21
 70
     1
102
RTVSPropertyOp22
 70
     1
102
RTVSPropertyOp23
 70
     1
102
RTVSPropertyOp24
 70
     1
102
RTVSPropertyOp25
 70
     1
102
RTVSPropertyOp26
 70
     1
102
RTVSPropertyOp27
 70
     1
102
RTVSPropertyOp28
 70
     1
102
RTVSPropertyOp29
 70
     1
102
RTVSPropertyOp30
 70
     1
102
RTVSPropertyOp31
 70
     1
102
RTVSPropertyOp32
 70
     1
102
RTVSPropertyOp33
 70
     1
102
RTVSPropertyOp34
 70
     1
102
RTVSPropertyOp35
 70
     1
102
RTVSPropertyOp36
 70
     1
102
RTVSPropertyOp37
 70
     1
102
RTVSPropertyOp38
 70
     1
102
RTVSPropertyOp39
 70
     1
102
RTVSPropertyOp40
 70
     1
102
RTVSPropertyOp41
 70
     1
102
RTVSPropertyOp42
 70
     1
102
RTVSPropertyOp43
 70
     1
102
RTVSPropertyOp44
 70
     1
102
RTVSPropertyOp45
 70
     1
102
RTVSPropertyOp46
 70
     1
102
RTVSPropertyOp47
 70
     1
102
RTVSPropertyOp48
 70
     1
102
RTVSPropertyOp49
 70
     1
102
RTVSPropertyOp50
 70
     1
102
RTVSPropertyOp51
 70
     0
102
RTVSPropertyOp52
 70
     0
102
RTVSPropertyOp53
 70
     1
102
RTVSPropertyOp54
 70
     1
102
RTVSPropertyOp55
 70
     1
102
RTVSPropertyOp56
 70
     1
102
RTVSPropertyOp57
 70
     1
102
RTVSPost2010Prop28
280
     0
102
RTVSPost2010PropOp28
 70
     1
102
RTVSPost2010Prop29
280
     1
102
RTVSPost2010PropOp29
 70
     1
102
RTVSPost2010Prop30
280
     1
102
RTVSPost2010PropOp30
 70
     1
102
RTVSPost2010Prop31
280
     0
102
RTVSPost2010PropOp31
 70
     1
102
RTVSPost2010Prop32
280
     0
102
RTVSPost2010PropOp32
 70
     1
102
RTVSPost2010Prop33
280
     0
102
RTVSPost2010PropOp33
 70
     1
102
RTVSPost2010Prop34
280
     0
102
RTVSPost2010PropOp34
 70
     1
102
RTVSPost2010Prop35
280
     0
102
RTVSPost2010PropOp35
 70
     1
102
RTVSPost2010Prop36
280
     0
102
RTVSPost2010PropOp36
 70
     1
102
RTVSPost2010Prop37
 90
       50
102
RTVSPost2010PropOp37
 70
     1
102
RTVSPost2010Prop38
140
0.0
102
RTVSPost2010PropOp38
 70
     1
102
RTVSPost2010Prop39
140
1.0
102
RTVSPost2010PropOp39
 70
     1
102
RTVSPost2010Prop40
 90
        0
102
RTVSPost2010PropOp40
 70
     1
102
RTVSPost2010Prop41ColorIndex
 90
       18
102
RTVSPost2010Prop41ColorRGB
 90
        0
102
RTVSPost2010PropOp41
 70
     1
102
RTVSPost2010Prop42
 90
       50
102
RTVSPost2010PropOp42
 70
     1
102
RTVSPost2010Prop43
 90
        3
102
RTVSPost2010PropOp43
 70
     1
102
RTVSPost2010Prop44ColorIndex
 90
        5
102
RTVSPost2010Prop44ColorRGB
 90
      255
102
RTVSPost2010PropOp44
 70
     1
102
RTVSPost2010Prop45
280
     0
102
RTVSPost2010PropOp45
 70
     1
102
RTVSPost2010Prop46
 90
       50
102
RTVSPost2010PropOp46
 70
     1
102
RTVSPost2010Prop47
 90
       50
102
RTVSPost2010PropOp47
 70
     1
102
RTVSPost2010Prop48
 90
       50
102
RTVSPost2010PropOp48
 70
     1
102
RTVSPost2010Prop49
280
     0
102
RTVSPost2010PropOp49
 70
     1
102
RTVSPost2010Prop50
 90
       50
102
RTVSPost2010PropOp50
 70
     1
102
RTVSPost2010Prop51ColorIndex
 90
      256
102
RTVSPost2010Prop51ColorRGB
 90
-16777216
102
RTVSPost2010PropOp51
 70
     0
102
RTVSPost2010Prop52
140
1.0
102
RTVSPost2010PropOp52
 70
     0
102
RTVSPost2010Prop53
 90
        2
102
RTVSPost2010PropOp53
 70
     1
102
RTVSPost2010Prop54
  1
strokes_ogs.tif
102
RTVSPost2010PropOp54
 70
     1
102
RTVSPost2010Prop55
280
     0
102
RTVSPost2010PropOp55
 70
     1
102
RTVSPost2010Prop56
140
1.0
102
RTVSPost2010PropOp56
 70
     1
102
RTVSPost2010Prop57
140
1.0
102
RTVSPost2010PropOp57
 70
     1
  0
XRECORD
  5
409
102
{ACAD_REACTORS
330
408
102
}
330
408
100
AcDbXrecord
280
     1
102
RTVSPropertyOp0
 70
     1
102
RTVSPropertyOp1
 70
     1
102
RTVSPropertyOp2
 70
     1
102
RTVSPropertyOp3
 70
     1
102
RTVSPropertyOp4
 70
     1
102
RTVSPropertyOp5
 70
     1
102
RTVSPropertyOp6
 70
     1
102
RTVSPropertyOp7
 70
     1
102
RTVSPropertyOp8
 70
     1
102
RTVSPropertyOp9
 70
     1
102
RTVSPropertyOp10
 70
     1
102
RTVSPropertyOp11
 70
     1
102
RTVSPropertyOp12
 70
     1
102
RTVSPropertyOp13
 70
     1
102
RTVSPropertyOp14
 70
     1
102
RTVSPropertyOp15
 70
     1
102
RTVSPropertyOp16
 70
     1
102
RTVSPropertyOp17
 70
     1
102
RTVSPropertyOp18
 70
     1
102
RTVSPropertyOp19
 70
     1
102
RTVSPropertyOp20
 70
     1
102
RTVSPropertyOp21
 70
     1
102
RTVSPropertyOp22
 70
     1
102
RTVSPropertyOp23
 70
     1
102
RTVSPropertyOp24
 70
     1
102
RTVSPropertyOp25
 70
     1
102
RTVSPropertyOp26
 70
     1
102
RTVSPropertyOp27
 70
     1
102
RTVSPropertyOp28
 70
     1
102
RTVSPropertyOp29
 70
     1
102
RTVSPropertyOp30
 70
     1
102
RTVSPropertyOp31
 70
     1
102
RTVSPropertyOp32
 70
     1
102
RTVSPropertyOp33
 70
     1
102
RTVSPropertyOp34
 70
     1
102
RTVSPropertyOp35
 70
     1
102
RTVSPropertyOp36
 70
     1
102
RTVSPropertyOp37
 70
     1
102
RTVSPropertyOp38
 70
     1
102
RTVSPropertyOp39
 70
     1
102
RTVSPropertyOp40
 70
     1
102
RTVSPropertyOp41
 70
     1
102
RTVSPropertyOp42
 70
     1
102
RTVSPropertyOp43
 70
     1
102
RTVSPropertyOp44
 70
     1
102
RTVSPropertyOp45
 70
     1
102
RTVSPropertyOp46
 70
     1
102
RTVSPropertyOp47
 70
     1
102
RTVSPropertyOp48
 70
     1
102
RTVSPropertyOp49
 70
     1
102
RTVSPropertyOp50
 70
     1
102
RTVSPropertyOp51
 70
     0
102
RTVSPropertyOp52
 70
     0
102
RTVSPropertyOp53
 70
     1
102
RTVSPropertyOp54
 70
     1
102
RTVSPropertyOp55
 70
     1
102
RTVSPropertyOp56
 70
     1
102
RTVSPropertyOp57
 70
     1
102
RTVSPost2010Prop28
280
     0
102
RTVSPost2010PropOp28
 70
     1
102
RTVSPost2010Prop29
280
     1
102
RTVSPost2010PropOp29
 70
     1
102
RTVSPost2010Prop30
280
     1
102
RTVSPost2010PropOp30
 70
     1
102
RTVSPost2010Prop31
280
     0
102
RTVSPost2010PropOp31
 70
     1
102
RTVSPost2010Prop32
280
     0
102
RTVSPost2010PropOp32
 70
     1
102
RTVSPost2010Prop33
280
     0
102
RTVSPost2010PropOp33
 70
     1
102
RTVSPost2010Prop34
280
     0
102
RTVSPost2010PropOp34
 70
     1
102
RTVSPost2010Prop35
280
     0
102
RTVSPost2010PropOp35
 70
     1
102
RTVSPost2010Prop36
280
     0
102
RTVSPost2010PropOp36
 70
     1
102
RTVSPost2010Prop37
 90
       50
102
RTVSPost2010PropOp37
 70
     1
102
RTVSPost2010Prop38
140
0.0
102
RTVSPost2010PropOp38
 70
     1
102
RTVSPost2010Prop39
140
1.0
102
RTVSPost2010PropOp39
 70
     1
102
RTVSPost2010Prop40
 90
        0
102
RTVSPost2010PropOp40
 70
     1
102
RTVSPost2010Prop41ColorIndex
 90
       18
102
RTVSPost2010Prop41ColorRGB
 90
        0
102
RTVSPost2010PropOp41
 70
     1
102
RTVSPost2010Prop42
 90
       50
102
RTVSPost2010PropOp42
 70
     1
102
RTVSPost2010Prop43
 90
        3
102
RTVSPost2010PropOp43
 70
     1
102
RTVSPost2010Prop44ColorIndex
 90
        5
102
RTVSPost2010Prop44ColorRGB
 90
      255
102
RTVSPost2010PropOp44
 70
     1
102
RTVSPost2010Prop45
280
     0
102
RTVSPost2010PropOp45
 70
     1
102
RTVSPost2010Prop46
 90
       50
102
RTVSPost2010PropOp46
 70
     1
102
RTVSPost2010Prop47
 90
       50
102
RTVSPost2010PropOp47
 70
     1
102
RTVSPost2010Prop48
 90
       50
102
RTVSPost2010PropOp48
 70
     1
102
RTVSPost2010Prop49
280
     0
102
RTVSPost2010PropOp49
 70
     1
102
RTVSPost2010Prop50
 90
       50
102
RTVSPost2010PropOp50
 70
     1
102
RTVSPost2010Prop51ColorIndex
 90
      256
102
RTVSPost2010Prop51ColorRGB
 90
-16777216
102
RTVSPost2010PropOp51
 70
     0
102
RTVSPost2010Prop52
140
1.0
102
RTVSPost2010PropOp52
 70
     0
102
RTVSPost2010Prop53
 90
        2
102
RTVSPost2010PropOp53
 70
     1
102
RTVSPost2010Prop54
  1
strokes_ogs.tif
102
RTVSPost2010PropOp54
 70
     1
102
RTVSPost2010Prop55
280
     0
102
RTVSPost2010PropOp55
 70
     1
102
RTVSPost2010Prop56
140
1.0
102
RTVSPost2010PropOp56
 70
     1
102
RTVSPost2010Prop57
140
1.0
102
RTVSPost2010PropOp57
 70
     1
  0
XRECORD
  5
40B
102
{ACAD_REACTORS
330
40A
102
}
330
40A
100
AcDbXrecord
280
     1
102
RTVSPropertyOp0
 70
     1
102
RTVSPropertyOp1
 70
     1
102
RTVSPropertyOp2
 70
     1
102
RTVSPropertyOp3
 70
     1
102
RTVSPropertyOp4
 70
     1
102
RTVSPropertyOp5
 70
     1
102
RTVSPropertyOp6
 70
     1
102
RTVSPropertyOp7
 70
     1
102
RTVSPropertyOp8
 70
     1
102
RTVSPropertyOp9
 70
     1
102
RTVSPropertyOp10
 70
     1
102
RTVSPropertyOp11
 70
     1
102
RTVSPropertyOp12
 70
     1
102
RTVSPropertyOp13
 70
     1
102
RTVSPropertyOp14
 70
     1
102
RTVSPropertyOp15
 70
     1
102
RTVSPropertyOp16
 70
     1
102
RTVSPropertyOp17
 70
     1
102
RTVSPropertyOp18
 70
     1
102
RTVSPropertyOp19
 70
     1
102
RTVSPropertyOp20
 70
     1
102
RTVSPropertyOp21
 70
     1
102
RTVSPropertyOp22
 70
     1
102
RTVSPropertyOp23
 70
     1
102
RTVSPropertyOp24
 70
     1
102
RTVSPropertyOp25
 70
     1
102
RTVSPropertyOp26
 70
     1
102
RTVSPropertyOp27
 70
     1
102
RTVSPropertyOp28
 70
     1
102
RTVSPropertyOp29
 70
     1
102
RTVSPropertyOp30
 70
     1
102
RTVSPropertyOp31
 70
     1
102
RTVSPropertyOp32
 70
     1
102
RTVSPropertyOp33
 70
     1
102
RTVSPropertyOp34
 70
     1
102
RTVSPropertyOp35
 70
     1
102
RTVSPropertyOp36
 70
     1
102
RTVSPropertyOp37
 70
     1
102
RTVSPropertyOp38
 70
     1
102
RTVSPropertyOp39
 70
     1
102
RTVSPropertyOp40
 70
     1
102
RTVSPropertyOp41
 70
     1
102
RTVSPropertyOp42
 70
     1
102
RTVSPropertyOp43
 70
     1
102
RTVSPropertyOp44
 70
     1
102
RTVSPropertyOp45
 70
     1
102
RTVSPropertyOp46
 70
     1
102
RTVSPropertyOp47
 70
     1
102
RTVSPropertyOp48
 70
     1
102
RTVSPropertyOp49
 70
     1
102
RTVSPropertyOp50
 70
     1
102
RTVSPropertyOp51
 70
     0
102
RTVSPropertyOp52
 70
     0
102
RTVSPropertyOp53
 70
     1
102
RTVSPropertyOp54
 70
     1
102
RTVSPropertyOp55
 70
     1
102
RTVSPropertyOp56
 70
     1
102
RTVSPropertyOp57
 70
     1
102
RTVSPost2010Prop28
280
     0
102
RTVSPost2010PropOp28
 70
     1
102
RTVSPost2010Prop29
280
     1
102
RTVSPost2010PropOp29
 70
     1
102
RTVSPost2010Prop30
280
     1
102
RTVSPost2010PropOp30
 70
     1
102
RTVSPost2010Prop31
280
     0
102
RTVSPost2010PropOp31
 70
     1
102
RTVSPost2010Prop32
280
     0
102
RTVSPost2010PropOp32
 70
     1
102
RTVSPost2010Prop33
280
     0
102
RTVSPost2010PropOp33
 70
     1
102
RTVSPost2010Prop34
280
     0
102
RTVSPost2010PropOp34
 70
     1
102
RTVSPost2010Prop35
280
     0
102
RTVSPost2010PropOp35
 70
     1
102
RTVSPost2010Prop36
280
     0
102
RTVSPost2010PropOp36
 70
     1
102
RTVSPost2010Prop37
 90
       50
102
RTVSPost2010PropOp37
 70
     1
102
RTVSPost2010Prop38
140
0.0
102
RTVSPost2010PropOp38
 70
     1
102
RTVSPost2010Prop39
140
1.0
102
RTVSPost2010PropOp39
 70
     1
102
RTVSPost2010Prop40
 90
        0
102
RTVSPost2010PropOp40
 70
     1
102
RTVSPost2010Prop41ColorIndex
 90
       18
102
RTVSPost2010Prop41ColorRGB
 90
        0
102
RTVSPost2010PropOp41
 70
     1
102
RTVSPost2010Prop42
 90
       50
102
RTVSPost2010PropOp42
 70
     1
102
RTVSPost2010Prop43
 90
        3
102
RTVSPost2010PropOp43
 70
     1
102
RTVSPost2010Prop44ColorIndex
 90
        5
102
RTVSPost2010Prop44ColorRGB
 90
      255
102
RTVSPost2010PropOp44
 70
     1
102
RTVSPost2010Prop45
280
     0
102
RTVSPost2010PropOp45
 70
     1
102
RTVSPost2010Prop46
 90
       50
102
RTVSPost2010PropOp46
 70
     1
102
RTVSPost2010Prop47
 90
       50
102
RTVSPost2010PropOp47
 70
     1
102
RTVSPost2010Prop48
 90
       50
102
RTVSPost2010PropOp48
 70
     1
102
RTVSPost2010Prop49
280
     0
102
RTVSPost2010PropOp49
 70
     1
102
RTVSPost2010Prop50
 90
       50
102
RTVSPost2010PropOp50
 70
     1
102
RTVSPost2010Prop51ColorIndex
 90
      256
102
RTVSPost2010Prop51ColorRGB
 90
-16777216
102
RTVSPost2010PropOp51
 70
     0
102
RTVSPost2010Prop52
140
1.0
102
RTVSPost2010PropOp52
 70
     0
102
RTVSPost2010Prop53
 90
        2
102
RTVSPost2010PropOp53
 70
     1
102
RTVSPost2010Prop54
  1
strokes_ogs.tif
102
RTVSPost2010PropOp54
 70
     1
102
RTVSPost2010Prop55
280
     0
102
RTVSPost2010PropOp55
 70
     1
102
RTVSPost2010Prop56
140
1.0
102
RTVSPost2010PropOp56
 70
     1
102
RTVSPost2010Prop57
140
1.0
102
RTVSPost2010PropOp57
 70
     1
  0
XRECORD
  5
3FB
102
{ACAD_REACTORS
330
3FA
102
}
330
3FA
100
AcDbXrecord
280
     1
102
RTVSPropertyOp0
 70
     1
102
RTVSPropertyOp1
 70
     1
102
RTVSPropertyOp2
 70
     1
102
RTVSPropertyOp3
 70
     1
102
RTVSPropertyOp4
 70
     1
102
RTVSPropertyOp5
 70
     1
102
RTVSPropertyOp6
 70
     1
102
RTVSPropertyOp7
 70
     1
102
RTVSPropertyOp8
 70
     1
102
RTVSPropertyOp9
 70
     1
102
RTVSPropertyOp10
 70
     1
102
RTVSPropertyOp11
 70
     1
102
RTVSPropertyOp12
 70
     1
102
RTVSPropertyOp13
 70
     1
102
RTVSPropertyOp14
 70
     1
102
RTVSPropertyOp15
 70
     1
102
RTVSPropertyOp16
 70
     1
102
RTVSPropertyOp17
 70
     1
102
RTVSPropertyOp18
 70
     1
102
RTVSPropertyOp19
 70
     1
102
RTVSPropertyOp20
 70
     1
102
RTVSPropertyOp21
 70
     1
102
RTVSPropertyOp22
 70
     1
102
RTVSPropertyOp23
 70
     1
102
RTVSPropertyOp24
 70
     1
102
RTVSPropertyOp25
 70
     1
102
RTVSPropertyOp26
 70
     1
102
RTVSPropertyOp27
 70
     1
102
RTVSPropertyOp28
 70
     1
102
RTVSPropertyOp29
 70
     1
102
RTVSPropertyOp30
 70
     1
102
RTVSPropertyOp31
 70
     1
102
RTVSPropertyOp32
 70
     1
102
RTVSPropertyOp33
 70
     1
102
RTVSPropertyOp34
 70
     1
102
RTVSPropertyOp35
 70
     1
102
RTVSPropertyOp36
 70
     1
102
RTVSPropertyOp37
 70
     1
102
RTVSPropertyOp38
 70
     1
102
RTVSPropertyOp39
 70
     1
102
RTVSPropertyOp40
 70
     1
102
RTVSPropertyOp41
 70
     1
102
RTVSPropertyOp42
 70
     1
102
RTVSPropertyOp43
 70
     1
102
RTVSPropertyOp44
 70
     1
102
RTVSPropertyOp45
 70
     1
102
RTVSPropertyOp46
 70
     1
102
RTVSPropertyOp47
 70
     1
102
RTVSPropertyOp48
 70
     1
102
RTVSPropertyOp49
 70
     1
102
RTVSPropertyOp50
 70
     1
102
RTVSPropertyOp51
 70
     0
102
RTVSPropertyOp52
 70
     0
102
RTVSPropertyOp53
 70
     1
102
RTVSPropertyOp54
 70
     1
102
RTVSPropertyOp55
 70
     1
102
RTVSPropertyOp56
 70
     1
102
RTVSPropertyOp57
 70
     1
102
RTVSPost2010Prop28
280
     0
102
RTVSPost2010PropOp28
 70
     1
102
RTVSPost2010Prop29
280
     1
102
RTVSPost2010PropOp29
 70
     1
102
RTVSPost2010Prop30
280
     1
102
RTVSPost2010PropOp30
 70
     1
102
RTVSPost2010Prop31
280
     0
102
RTVSPost2010PropOp31
 70
     1
102
RTVSPost2010Prop32
280
     0
102
RTVSPost2010PropOp32
 70
     1
102
RTVSPost2010Prop33
280
     0
102
RTVSPost2010PropOp33
 70
     1
102
RTVSPost2010Prop34
280
     0
102
RTVSPost2010PropOp34
 70
     1
102
RTVSPost2010Prop35
280
     0
102
RTVSPost2010PropOp35
 70
     1
102
RTVSPost2010Prop36
280
     0
102
RTVSPost2010PropOp36
 70
     1
102
RTVSPost2010Prop37
 90
       50
102
RTVSPost2010PropOp37
 70
     1
102
RTVSPost2010Prop38
140
0.0
102
RTVSPost2010PropOp38
 70
     1
102
RTVSPost2010Prop39
140
1.0
102
RTVSPost2010PropOp39
 70
     1
102
RTVSPost2010Prop40
 90
        0
102
RTVSPost2010PropOp40
 70
     1
102
RTVSPost2010Prop41ColorIndex
 90
       18
102
RTVSPost2010Prop41ColorRGB
 90
        0
102
RTVSPost2010PropOp41
 70
     1
102
RTVSPost2010Prop42
 90
       50
102
RTVSPost2010PropOp42
 70
     1
102
RTVSPost2010Prop43
 90
        3
102
RTVSPost2010PropOp43
 70
     1
102
RTVSPost2010Prop44ColorIndex
 90
        5
102
RTVSPost2010Prop44ColorRGB
 90
      255
102
RTVSPost2010PropOp44
 70
     1
102
RTVSPost2010Prop45
280
     0
102
RTVSPost2010PropOp45
 70
     1
102
RTVSPost2010Prop46
 90
       50
102
RTVSPost2010PropOp46
 70
     1
102
RTVSPost2010Prop47
 90
       50
102
RTVSPost2010PropOp47
 70
     1
102
RTVSPost2010Prop48
 90
       50
102
RTVSPost2010PropOp48
 70
     1
102
RTVSPost2010Prop49
280
     0
102
RTVSPost2010PropOp49
 70
     1
102
RTVSPost2010Prop50
 90
       50
102
RTVSPost2010PropOp50
 70
     1
102
RTVSPost2010Prop51ColorIndex
 90
      256
102
RTVSPost2010Prop51ColorRGB
 90
-16777216
102
RTVSPost2010PropOp51
 70
     0
102
RTVSPost2010Prop52
140
1.0
102
RTVSPost2010PropOp52
 70
     0
102
RTVSPost2010Prop53
 90
        2
102
RTVSPost2010PropOp53
 70
     1
102
RTVSPost2010Prop54
  1
strokes_ogs.tif
102
RTVSPost2010PropOp54
 70
     1
102
RTVSPost2010Prop55
280
     0
102
RTVSPost2010PropOp55
 70
     1
102
RTVSPost2010Prop56
140
1.0
102
RTVSPost2010PropOp56
 70
     1
102
RTVSPost2010Prop57
140
1.0
102
RTVSPost2010PropOp57
 70
     1
  0
XRECORD
  5
3ED
102
{ACAD_REACTORS
330
3EC
102
}
330
3EC
100
AcDbXrecord
280
     1
102
RTVSPropertyOp0
 70
     1
102
RTVSPropertyOp1
 70
     1
102
RTVSPropertyOp2
 70
     1
102
RTVSPropertyOp3
 70
     1
102
RTVSPropertyOp4
 70
     1
102
RTVSPropertyOp5
 70
     1
102
RTVSPropertyOp6
 70
     1
102
RTVSPropertyOp7
 70
     1
102
RTVSPropertyOp8
 70
     1
102
RTVSPropertyOp9
 70
     1
102
RTVSPropertyOp10
 70
     1
102
RTVSPropertyOp11
 70
     1
102
RTVSPropertyOp12
 70
     1
102
RTVSPropertyOp13
 70
     1
102
RTVSPropertyOp14
 70
     1
102
RTVSPropertyOp15
 70
     1
102
RTVSPropertyOp16
 70
     1
102
RTVSPropertyOp17
 70
     1
102
RTVSPropertyOp18
 70
     1
102
RTVSPropertyOp19
 70
     1
102
RTVSPropertyOp20
 70
     1
102
RTVSPropertyOp21
 70
     1
102
RTVSPropertyOp22
 70
     1
102
RTVSPropertyOp23
 70
     1
102
RTVSPropertyOp24
 70
     1
102
RTVSPropertyOp25
 70
     1
102
RTVSPropertyOp26
 70
     1
102
RTVSPropertyOp27
 70
     1
102
RTVSPropertyOp28
 70
     1
102
RTVSPropertyOp29
 70
     1
102
RTVSPropertyOp30
 70
     1
102
RTVSPropertyOp31
 70
     1
102
RTVSPropertyOp32
 70
     1
102
RTVSPropertyOp33
 70
     1
102
RTVSPropertyOp34
 70
     1
102
RTVSPropertyOp35
 70
     1
102
RTVSPropertyOp36
 70
     1
102
RTVSPropertyOp37
 70
     1
102
RTVSPropertyOp38
 70
     1
102
RTVSPropertyOp39
 70
     1
102
RTVSPropertyOp40
 70
     1
102
RTVSPropertyOp41
 70
     1
102
RTVSPropertyOp42
 70
     1
102
RTVSPropertyOp43
 70
     1
102
RTVSPropertyOp44
 70
     1
102
RTVSPropertyOp45
 70
     1
102
RTVSPropertyOp46
 70
     1
102
RTVSPropertyOp47
 70
     1
102
RTVSPropertyOp48
 70
     1
102
RTVSPropertyOp49
 70
     1
102
RTVSPropertyOp50
 70
     1
102
RTVSPropertyOp51
 70
     0
102
RTVSPropertyOp52
 70
     0
102
RTVSPropertyOp53
 70
     1
102
RTVSPropertyOp54
 70
     1
102
RTVSPropertyOp55
 70
     1
102
RTVSPropertyOp56
 70
     1
102
RTVSPropertyOp57
 70
     1
102
RTVSPost2010Prop28
280
     0
102
RTVSPost2010PropOp28
 70
     1
102
RTVSPost2010Prop29
280
     1
102
RTVSPost2010PropOp29
 70
     1
102
RTVSPost2010Prop30
280
     1
102
RTVSPost2010PropOp30
 70
     1
102
RTVSPost2010Prop31
280
     0
102
RTVSPost2010PropOp31
 70
     1
102
RTVSPost2010Prop32
280
     0
102
RTVSPost2010PropOp32
 70
     1
102
RTVSPost2010Prop33
280
     0
102
RTVSPost2010PropOp33
 70
     1
102
RTVSPost2010Prop34
280
     0
102
RTVSPost2010PropOp34
 70
     1
102
RTVSPost2010Prop35
280
     0
102
RTVSPost2010PropOp35
 70
     1
102
RTVSPost2010Prop36
280
     0
102
RTVSPost2010PropOp36
 70
     1
102
RTVSPost2010Prop37
 90
       50
102
RTVSPost2010PropOp37
 70
     1
102
RTVSPost2010Prop38
140
0.0
102
RTVSPost2010PropOp38
 70
     1
102
RTVSPost2010Prop39
140
1.0
102
RTVSPost2010PropOp39
 70
     1
102
RTVSPost2010Prop40
 90
        0
102
RTVSPost2010PropOp40
 70
     1
102
RTVSPost2010Prop41ColorIndex
 90
       18
102
RTVSPost2010Prop41ColorRGB
 90
        0
102
RTVSPost2010PropOp41
 70
     1
102
RTVSPost2010Prop42
 90
       50
102
RTVSPost2010PropOp42
 70
     1
102
RTVSPost2010Prop43
 90
        3
102
RTVSPost2010PropOp43
 70
     1
102
RTVSPost2010Prop44ColorIndex
 90
        5
102
RTVSPost2010Prop44ColorRGB
 90
      255
102
RTVSPost2010PropOp44
 70
     1
102
RTVSPost2010Prop45
280
     0
102
RTVSPost2010PropOp45
 70
     1
102
RTVSPost2010Prop46
 90
       50
102
RTVSPost2010PropOp46
 70
     1
102
RTVSPost2010Prop47
 90
       50
102
RTVSPost2010PropOp47
 70
     1
102
RTVSPost2010Prop48
 90
       50
102
RTVSPost2010PropOp48
 70
     1
102
RTVSPost2010Prop49
280
     0
102
RTVSPost2010PropOp49
 70
     1
102
RTVSPost2010Prop50
 90
       50
102
RTVSPost2010PropOp50
 70
     1
102
RTVSPost2010Prop51ColorIndex
 90
      256
102
RTVSPost2010Prop51ColorRGB
 90
-16777216
102
RTVSPost2010PropOp51
 70
     0
102
RTVSPost2010Prop52
140
1.0
102
RTVSPost2010PropOp52
 70
     0
102
RTVSPost2010Prop53
 90
        2
102
RTVSPost2010PropOp53
 70
     1
102
RTVSPost2010Prop54
  1
strokes_ogs.tif
102
RTVSPost2010PropOp54
 70
     1
102
RTVSPost2010Prop55
280
     0
102
RTVSPost2010PropOp55
 70
     1
102
RTVSPost2010Prop56
140
1.0
102
RTVSPost2010PropOp56
 70
     1
102
RTVSPost2010Prop57
140
1.0
102
RTVSPost2010PropOp57
 70
     1
  0
XRECORD
  5
40D
102
{ACAD_REACTORS
330
40C
102
}
330
40C
100
AcDbXrecord
280
     1
102
RTVSPropertyOp0
 70
     1
102
RTVSPropertyOp1
 70
     1
102
RTVSPropertyOp2
 70
     1
102
RTVSPropertyOp3
 70
     1
102
RTVSPropertyOp4
 70
     1
102
RTVSPropertyOp5
 70
     1
102
RTVSPropertyOp6
 70
     1
102
RTVSPropertyOp7
 70
     1
102
RTVSPropertyOp8
 70
     1
102
RTVSPropertyOp9
 70
     1
102
RTVSPropertyOp10
 70
     1
102
RTVSPropertyOp11
 70
     1
102
RTVSPropertyOp12
 70
     1
102
RTVSPropertyOp13
 70
     1
102
RTVSPropertyOp14
 70
     1
102
RTVSPropertyOp15
 70
     1
102
RTVSPropertyOp16
 70
     1
102
RTVSPropertyOp17
 70
     1
102
RTVSPropertyOp18
 70
     1
102
RTVSPropertyOp19
 70
     1
102
RTVSPropertyOp20
 70
     1
102
RTVSPropertyOp21
 70
     1
102
RTVSPropertyOp22
 70
     1
102
RTVSPropertyOp23
 70
     1
102
RTVSPropertyOp24
 70
     1
102
RTVSPropertyOp25
 70
     1
102
RTVSPropertyOp26
 70
     1
102
RTVSPropertyOp27
 70
     1
102
RTVSPropertyOp28
 70
     1
102
RTVSPropertyOp29
 70
     1
102
RTVSPropertyOp30
 70
     1
102
RTVSPropertyOp31
 70
     1
102
RTVSPropertyOp32
 70
     1
102
RTVSPropertyOp33
 70
     1
102
RTVSPropertyOp34
 70
     1
102
RTVSPropertyOp35
 70
     1
102
RTVSPropertyOp36
 70
     1
102
RTVSPropertyOp37
 70
     1
102
RTVSPropertyOp38
 70
     1
102
RTVSPropertyOp39
 70
     1
102
RTVSPropertyOp40
 70
     1
102
RTVSPropertyOp41
 70
     1
102
RTVSPropertyOp42
 70
     1
102
RTVSPropertyOp43
 70
     1
102
RTVSPropertyOp44
 70
     1
102
RTVSPropertyOp45
 70
     1
102
RTVSPropertyOp46
 70
     1
102
RTVSPropertyOp47
 70
     1
102
RTVSPropertyOp48
 70
     1
102
RTVSPropertyOp49
 70
     1
102
RTVSPropertyOp50
 70
     1
102
RTVSPropertyOp51
 70
     0
102
RTVSPropertyOp52
 70
     0
102
RTVSPropertyOp53
 70
     1
102
RTVSPropertyOp54
 70
     1
102
RTVSPropertyOp55
 70
     1
102
RTVSPropertyOp56
 70
     1
102
RTVSPropertyOp57
 70
     1
102
RTVSPost2010Prop28
280
     0
102
RTVSPost2010PropOp28
 70
     1
102
RTVSPost2010Prop29
280
     1
102
RTVSPost2010PropOp29
 70
     1
102
RTVSPost2010Prop30
280
     1
102
RTVSPost2010PropOp30
 70
     1
102
RTVSPost2010Prop31
280
     0
102
RTVSPost2010PropOp31
 70
     1
102
RTVSPost2010Prop32
280
     0
102
RTVSPost2010PropOp32
 70
     1
102
RTVSPost2010Prop33
280
     0
102
RTVSPost2010PropOp33
 70
     1
102
RTVSPost2010Prop34
280
     0
102
RTVSPost2010PropOp34
 70
     1
102
RTVSPost2010Prop35
280
     0
102
RTVSPost2010PropOp35
 70
     1
102
RTVSPost2010Prop36
280
     0
102
RTVSPost2010PropOp36
 70
     1
102
RTVSPost2010Prop37
 90
       50
102
RTVSPost2010PropOp37
 70
     1
102
RTVSPost2010Prop38
140
0.0
102
RTVSPost2010PropOp38
 70
     1
102
RTVSPost2010Prop39
140
1.0
102
RTVSPost2010PropOp39
 70
     1
102
RTVSPost2010Prop40
 90
        0
102
RTVSPost2010PropOp40
 70
     1
102
RTVSPost2010Prop41ColorIndex
 90
       18
102
RTVSPost2010Prop41ColorRGB
 90
        0
102
RTVSPost2010PropOp41
 70
     1
102
RTVSPost2010Prop42
 90
       50
102
RTVSPost2010PropOp42
 70
     1
102
RTVSPost2010Prop43
 90
        3
102
RTVSPost2010PropOp43
 70
     1
102
RTVSPost2010Prop44ColorIndex
 90
        5
102
RTVSPost2010Prop44ColorRGB
 90
      255
102
RTVSPost2010PropOp44
 70
     1
102
RTVSPost2010Prop45
280
     0
102
RTVSPost2010PropOp45
 70
     1
102
RTVSPost2010Prop46
 90
       50
102
RTVSPost2010PropOp46
 70
     1
102
RTVSPost2010Prop47
 90
       50
102
RTVSPost2010PropOp47
 70
     1
102
RTVSPost2010Prop48
 90
       50
102
RTVSPost2010PropOp48
 70
     1
102
RTVSPost2010Prop49
280
     0
102
RTVSPost2010PropOp49
 70
     1
102
RTVSPost2010Prop50
 90
       50
102
RTVSPost2010PropOp50
 70
     1
102
RTVSPost2010Prop51ColorIndex
 90
      256
102
RTVSPost2010Prop51ColorRGB
 90
-16777216
102
RTVSPost2010PropOp51
 70
     0
102
RTVSPost2010Prop52
140
1.0
102
RTVSPost2010PropOp52
 70
     0
102
RTVSPost2010Prop53
 90
        2
102
RTVSPost2010PropOp53
 70
     1
102
RTVSPost2010Prop54
  1
strokes_ogs.tif
102
RTVSPost2010PropOp54
 70
     1
102
RTVSPost2010Prop55
280
     0
102
RTVSPost2010PropOp55
 70
     1
102
RTVSPost2010Prop56
140
1.0
102
RTVSPost2010PropOp56
 70
     1
102
RTVSPost2010Prop57
140
1.0
102
RTVSPost2010PropOp57
 70
     1
  0
ENDSEC
  0
EOF
